Song name
# A B C D E F G H I J K L M N O P Q R S T U V W X Y Z

Daniel Fortea - Vals En Sol Waltz In G tab

Vals en Sol (Waltz in G) - Daniel Fortea (1878-1953)

tab from arsenio plasencia rodriguez

s  = slide
|* = repeat from
*| = repeat to

tuning: E A D G B E
tempo: 140 bpm
time signature: 3/4

1
|----0--2--|-3--------|-5--------|-7--------|-7--8--0--|-2--------|-2--0--2--|
|-3--------|----0-----|----0-----|----0-----|----------|----1-----|----------|
|----------|-------0--|-------0--|-------0--|----------|-------2--|----------|
|----------|-0--------|-0--------|-0--------|----------|-0--------|-0--------|
|----------|----------|----------|----------|----------|----------|----------|
|----------|----------|----------|----------|----------|----------|----------|

8
|-3--------|----0--2--|-3--------|-5--------|-7--------|-7--8--0--|-2--------|
|----0-----|-3--------|----0-----|----0-----|----0-----|----------|----1-----|
|-------0--|----------|-------0--|-------0--|-------0--|----------|-------2--|
|----------|----------|-0--------|-0--------|-0--------|----------|-0--------|
|----------|----------|----------|----------|----------|----------|----------|
|-3--------|----------|----------|----------|----------|----------|----------|

15
|-2--0--2--|-3-------3|s7--8--9--|-10-------|-10-9--8--|-7--------|-7--8--0--|
|----------|-0--------|----------|----0-----|----------|----0-----|----------|
|----------|-0--------|----------|-------0--|----------|-------0--|----------|
|-0--------|----------|----------|-0--------|----------|-0--------|----------|
|----------|----------|----------|----------|----------|----------|----------|
|----------|-3--------|----------|----------|----------|----------|----------|

22
|-2--------|-2--0--2--|-3-------3|s7--8--9--|-10-------|-10-9--8--|-7--------|
|----1-----|----------|----0-----|----------|----0-----|----------|----0-----|
|-------2--|----------|-------0--|----------|-------0--|----------|-------0--|
|-0--------|----------|----------|----------|-0--------|----------|-0--------|
|----------|----------|----------|----------|----------|----------|----------|
|----------|----------|-3--------|----------|----------|----------|----------|

29
|-7--8--0--|-2--------|-2--0--2--|-3-------||-4--5--6--|-7--------|-5--------|
|----------|----1-----|-------1--|-0-------||----------|----4-----|----4-----|
|----------|-------2--|-------2--|-0-------||*---------|-------4--|-------4--|
|----------|-0--------|-0-----0--|---------||*---------|-4--------|-4--------|
|----------|----------|----------|---------||----------|----------|----------|
|----------|----------|----------|-3-------||----------|----------|----------|

36
|-3-------3|s7--8--9--|-10-------|-8--------|-7--8--7--|-5--------|-5--7--5--|
|----0-----|----------|-----7----|----7-----|----------|----5-----|----------|
|-------0--|----------|--------7-|-------7--|----------|-------5--|----------|
|----------|----------|-0--------|-0--------|----------|-0--------|----------|
|----------|----------|----------|----------|----------|----------|----------|
|-0--------|----------|----------|----------|----------|----------|----------|

43
|-3--------|-3--2--0--|-2--------|-2--0--2--|-3-------||----0--2--|-3--------|
|----0-----|----------|----1-----|-------1--|-0-------||-3--------|----0-----|
|-------0--|----------|-------2--|-------2--|-0------*||----------|-------0--|
|-0--------|----------|-0--------|-0-----0--|--------*||----------|-0--------|
|----------|----------|----------|----------|---------||----------|----------|
|----------|----------|----------|----------|-3-------||----------|----------|

50
|-5--------|-7--------|-7--8--0--|-2--------|-2--0--2--|-3--------|----0--2--|
|----0-----|----0-----|----------|----1-----|----------|----0-----|-3--------|
|-------0--|-------0--|----------|-------2--|----------|-------0--|----------|
|-0--------|-0--------|----------|-0--------|-0--------|----------|----------|
|----------|----------|----------|----------|----------|----------|----------|
|----------|----------|----------|----------|----------|-3--------|----------|

57
|-3--------|-5--------|-7--------|-7--8--0--|-2--------|-2--0--2--|-3--------|
|----0-----|----0-----|----0-----|----------|----1-----|----------|-0--------|
|-------0--|-------0--|-------0--|----------|-------2--|----------|-0--------|
|-0--------|-0--------|-0--------|----------|-0--------|-0--------|----------|
|----------|----------|----------|----------|----------|----------|----------|
|----------|----------|----------|----------|----------|----------|-3--------|

64
|-3--3--3--|-3-------||
|-0--0--0--|-0-------||
|-0--0--0--|-0-------||
|----------|---------||
|----------|---------||
|-3--3--3--|-3-------||
Tap to rate this tab
# A B C D E F G H I J K L M N O P Q R S T U V W X Y Z