Song name
# A B C D E F G H I J K L M N O P Q R S T U V W X Y Z

Daniel Lee Kendall - Lost In The Moment tab

-------------------------------------------------------------------------------
			     Lost In The Moment - Daniel Lee Kendall
-------------------------------------------------------------------------------
Tabbed by: sherboi
Email: 

Great tune. just a basic way to play it thought it deserved to be tabulated

Tuning: standard

Verse/chorus:

e|---------------------------------------------------------------------------|
B|-------------------9------------9----------------9------------10-----------|
G|-------------------9------------9----------------9------------11-----------|
D|---------------------------------------------------------------------------|
A|-------7----------------7---7----------------7-------7---7-----------------|
E|---------------------------------------------------------------------------|

e|---------------------------------------------------------------------------|
B|-------------------9---------------9-----------------9-------------------5-|
G|-------------------9---------------9-----------------9-------------------6-|
D|---------------------------------------------------------------------------|
A|---------------------------------------------------------------------------|
E|-------9------------------9---9----------------9-----------9---5-----------|


Bridge:

e|---------------------------------------------------------------------------|
B|----------------9-------------------9-----------9-------------10-----10----|
G|----------------9-------------------9-----------9-------------11-----11----|
D|---------------------------------------------------------------------------|
A|-----7--------------------7---7-------------7--------7---9--------9--------|
E|---------------------------------------------------------------------------|

e|---------------------------------------------------------------------------|
B|-----------------9---------------9---------------7--------------5----------|
G|-----------------9---------------9---------------8--------------6----------|
D|---------------------------------------------------------------------------|
A|---------------------------------------------------------------------------|
E|------9-----------------9---9-------------7------------7---5---------------|



************************************

| /   slide up
| \   slide down
| h   hammer-on
| p   pull-off
| ~   vibrato
| +   harmonic
| x   Mute note
| b   Bend
| pb  Pre-bend
| br  Bend release
| pbr Pre-bend release
| brb Bend release bend

************************************
www.myspace.com/danielleekendall
Tap to rate this tab
 
# A B C D E F G H I J K L M N O P Q R S T U V W X Y Z