Song name
# A B C D E F G H I J K L M N O P Q R S T U V W X Y Z

Daniel Padilla - Grow Old With You tab

plzz rate my tab
im sure this is right 0_o
GROW OLD WITH YOU
FINGERSTYLE VERSION

verse 1
E|-----------------------------------------3-2-2--------|
B|-------2-3-3---3-3-5-5---5-5-5-5-5-5-5-------3--------|
G|-------2---------4---------6-6-6-6-6-6-------2--------|
D|-2-2-2-2---------4---------6-----------------0--------|
A|-----------------2---------4--------------------------|
E|------------------------------------------------------|

E|-2-0-------------------0--------------------0------|
B|-3-2-3-3-3-3--0--3--2--2--------------------2------|
G|-2-2----------1--1-----2-------2x------------------|
D|-0-2----------2--------2--------------------2------|
A|--------------2------------------------------------|
E|---------------------------------------------------|
chorus
E|-2----2---------------------------------------------------------|
B|-3----3-------2-2-2-2----2-2---3-2-2----------------------------|
G|---2----2-----2-2-2-2----2-2---0---2----------------------------|
D|-0----0------------------------0---0----------------------------|
A|----------------------------------------------------------------|
E|----------------------------------------------------------------|

E|-2-----2---------------------------------------------|
B|-3-----3------2-2-2-2-2---3-2-2----------------------|
G|----2-----2---------------0---2----------------------|
D|-0-----0------------------0--------------------------|
A|-----------------------------------------------------|
E|-----------------------------------------------------|
verse 2
E|----------------------------------3-2-2------------------|
B|--2-3-3-3-3-3-5-5-5-5--5-5-5-5-5--------3-3--------------|
G|--2---------4-------6---------------------0--------------|
D|--2---------4-------6------------------------------------|
A|------------2-------4------------------------------------|
E|---------------------------------------------------------|

E|------------------------------------------------------------|
B|--2-3-3-3-3--0-0-3-2-2---0--3-2-2---------------------------|
G|--2----------1-1-----2---1------2---------END---------------|
D|--2----------2-------2---2------2---------------------------|
A|-------------2-2---------2----------------------------------|
Ez|-----------------------------------------------------------|
Tap to rate this tab
# A B C D E F G H I J K L M N O P Q R S T U V W X Y Z