Song name
# A B C D E F G H I J K L M N O P Q R S T U V W X Y Z

Danko Jones - I Want You tab

-------------------------------------------------------------------------------
			     I Want You - Danko Jones
-------------------------------------------------------------------------------
Tabbed by:johnnybebad
Email:j_bebad@hotmail.com

Tuning: Standard

e|--------------------------------------------------------------------------------------|
B|--------------------------------------------------------------------------------------|
G|-----------4---4-------2---2----------4----2------------------------------------------|
D|---4-------4---4-------2---2----------4----2----2-------(X 7)  -----------------------|
A|---4-------2---2-------0---0----------2----0----2-------------------------------------|
E|---2--------------------------------------------0-------------------------------------|

e|--------------------------------------------------------------------------------------|
B|---------------------( MUTED )--------------------------------------------------------|
G|-----------4---4-------2---2----------4----2------------------------------------------|
D|---4-------4---4-------2---2----------4----2----2------- (X 8) -----------------------|
A|---4-------2---2-------0---0----------2----0----2-------------------------------------|
E|---2--------------------------------------------0-------------------------------------|
" when she walks by .......

e|-------------------------------------------------------------|
B|-------------------------------------------------------------|
G|---11--------9--------4---------7----------------------------|
D|---11--(x8)--9--(X8)--4--(X8)---7--(X8)----------PLAY TWICE--|
A|---9---------7--------2---------5----------------------------|
E|-------------------------------------------------------------|
  "you got to ......

e|--------------------------------------------------------------------------------------|
B|--------------------------------------------------------------------------------------|
G|-----------4---4-------2---2----------4----2------------------------------------------|
D|---4-------4---4-------2---2----------4----2----2-------(X 8)  -----------------------|
A|---4-------2---2-------0---0----------2----0----2-------------------------------------|
E|---2--------------------------------------------0-------------------------------------|
  " I want you...........


e|--------------------------------------------------------------------------------------|
B|----------------------------(MUTED)---------------------------------------------------|
G|-----------4---4-------2---2----------4----2------------------------------------------|
D|---4-------4---4-------2---2----------4----2----2-------(X 8)  -----------------------|
A|---4-------2---2-------0---0----------2----0----2-------------------------------------|
E|---2--------------------------------------------0-------------------------------------|
   " Time is wastin.......


e|-------------------------------------------------------------|
B|-------------------------------------------------------------|
G|---11--------9--------4---------7----------------------------|
D|---11--(x8)--9--(X8)--4--(X8)---7--(X8)----------PLAY TWICE--|
A|---9---------7--------2---------5----------------------------|
E|-------------------------------------------------------------|
  "you got to ......


e|--------------------------------------------------------------------------------------|
B|--------------------------------------------------------------------------------------|
G|-------------------7--7---------------------------------------------------------------|
D|----4-----2--2-----7--7-----(X3)------------------------------------------------------|
A|----4-----2--2-----5--5---------------------------------------------------------------|
E|----2-----0--0------------------------------------------------------------------------|

                      (Bass Solo)

e|--------------------------------------------------------------------------------------|
B|--------------------------------------------------------------------------------------|
G|-----------4---4-------2---2----------4----2------------------------------------------|
D|---4-------4---4-------2---2----------4----2----2-------(X 4)  -----------------------|
A|---4-------2---2-------0---0----------2----0----2-------------------------------------|
E|---2--------------------------------------------0-------------------------------------|

e|-------------------------------------------------------------|
B|-------------------------------------------------------------|
G|---11--------9--------4---------7----------------------------|
D|---11--(x8)--9--(X8)--4--(X8)---7--(X8)----------PLAY TWICE--|
A|---9---------7--------2---------5----------------------------|
E|-------------------------------------------------------------|
  "you got to ......

e|--------------------------------------------------------------------------------------|
B|--------------------------------------------------------------------------------------|
G|-----------4---4-------2---2----------4----2------------------------------------------|
D|---4-------4---4-------2---2----------4----2----2-------(X 8)  -----------------------|
A|---4-------2---2-------0---0----------2----0----2-------------------------------------|
E|---2--------------------------------------------0-------------------------------------|
  " I want you...........

go easy on me, this was my first try at a tab,lol.


| /  slide up
| \  slide down
| h  hammer-on
| p  pull-off
| ~  vibrato
| +  harmonic
| x  Mute note
===============================================================================
Tap to rate this tab
 
# A B C D E F G H I J K L M N O P Q R S T U V W X Y Z