Song name
# A B C D E F G H I J K L M N O P Q R S T U V W X Y Z

Danzig - Black Hell tab

----------------------------------------------------------------------------
			     Black Hell - Danzig
----------------------------------------------------------------------------
Tabbed by:
Email:thegreatmdog@gmail.com

Tuning:Standard

e|-------------------------------------------------------------------------|
B|-------------------------------------------------------------------------|
G|-------------------------------------------------------------------------|
D|----11----9-----7----6---------------------------------------------------|
A|--11-----9-----7----6----------------------------------------------------|
E|-9------7-----5----4-----------------------------------------------------|
chorus
e|-9-----7----5----4-------------------------------------------------------|
B|-9-----7----5----4-------------------------------------------------------|
G|-9-----7----5----4-------------------------------------------------------|
D|-11----9----7----6-------------------------------------------------------|
A|-11----9----7----6-------------------------------------------------------|
E|-9-----7----5----4-------------------------------------------------------|
variations of this are played throughout the song
e|-------------------------------------------------------------------------|
B|-12^14-------------------------------------------------------------------|
G|-------------------------------------------------------------------------|
D|-------------------------------------------------------------------------|
A|-------------------------------------------------------------------------|
E|-------------------------------------------------------------------------|
Tap to rate this tab
 
# A B C D E F G H I J K L M N O P Q R S T U V W X Y Z