Song name
# A B C D E F G H I J K L M N O P Q R S T U V W X Y Z

Danzig - Do You Wear The Mark tab

Hey, I'm mike. My friend is related to the Misfits/Danzig. We don't think the last tab 
correct so here's our rhythm part.

  Intro: **forte**
e|--------------------------------|
B|--------------------------------|
G|--------------------------------|
D|-------9---------------9--------| X6
A|-------7-------5-------7--5-5-5-|
E|-0-0-0---0-0-0-3-0-0-0----3-3-3-|
  P.M...   .....   .....

  Verse:"Devil's on the left"  **slows down**
                                1st               2nd
                      (wah pedal on 2nd count)
e|---------------------|-3(hold for 3 counts)|----------|
B|---------------------|---------------------|----------|
G|---------------------|---------------------|----------|
D|---------------------|---------------------|----------| x6
A|-0--2-2-2-2-2-2-2-2--|---------------------|-2-2--5-7-|(^^^only durring
E|-0--0-0-0-0-0-0-0-0--|---------------------|-0-0--3-5-| verse)
        P.M....   ....                         ...

  Chorus: **Let chords ring**
e|-----------|  Order : Chorus x1
B|-----------|   of     Verse x1
G|-----------|  Whole   Chorus x1
D|------5----|  Chorus  Verse x1
A|-5----3--7-|
E|-3-------5-|

-Verse.

-Chorus

 Bridge: "Do you wear the mark?"
e|----------|    e|------------|
B|----------|    B|------------|
G|----------|    G|------------|
D|----------|x8  D|------------|x16
A|-2--2-5-7-|    A|-2--5-5-5-7-|
E|-0--0-3-5-|    E|-0--3-3-3-5-|
                       P.M..
-Verse (Lasts 'til the end of the solos)

-Chorus (only first chorus part, then...

 Final Chorus: Total x2                 **Let chords ring**
e|----------------------------|        e|-----------------|
B|----------------------------|        B|-----------------|
G|----------------------------|        G|-----------------|
D|----------------------------|x4 then D|----------5------|
A|-2--2-2--2--2-2--2--2-2-5-7-|        A|-5--------3----7-|
E|-0--0-0--0--0-0--0--0-0-3-5-|        E|-3-------------5-|
      P.M     ...     ...

 Ending: tempo cut in half **Let chords ring**
e|-----------------|
B|-----------------|
G|-----------------|
D|----------5------|
A|-5--------3----7-|
E|-3-------------5-|
Tap to rate this tab
 
# A B C D E F G H I J K L M N O P Q R S T U V W X Y Z