Song name
# A B C D E F G H I J K L M N O P Q R S T U V W X Y Z

Danzig - Not Of This World tab

Not Of This World 
wah ibanez

  intro riff:
E|---------------------------------|---------------------------------|
B|---------------------------------|---------------------------------|
G|---------------------------------|-2---------------5---------------|
D|---------------------------------|-2---------------5-----5---------|
A|-0---------------3-0-7-6~--------|-0---------------3-----5---------|
E+---------------------------------|-----------------------3---------+


  intro bridge:
E|---------7---------------7---------------3---------------3-------|
B|---------7---------------7---------------3---------------3-------|
G|---------8---------------8---------------4---------------4-------|
D|-----------------------------------------------------------------|
A|-9-9-9-9---9-9-9-9-9-9-9---9-9-9-5-5-5-5---5-5-5-5-5-5-5---5-5-5-|
E|-7-7-7-7---7-7-7-7-7-7-7---7-7-7-3-3-3-3---3-3-3-3-3-3-3---3-3-3-|
pm . . . .   . . . . . . .   . . . . . . .   . . . . . . .   . . .
  intro bridge (continued):
E|---------7---------------7---------------------------------------|
B|---------7---------------7---------------------------------------|
G|---------8---------------8---------------------------------------|
D|---------------------------------2-------------------------------|
A|-9-9-9-9---9-9-9-9-9-9-9---9-9-9-2-------------------------------|
E|-7-7-7-7---7-7-7-7-7-7-7---7-7-7-0-------------------------------|
 pm. . . .   . . . . . . .   . . . .

  bridge:
E|---------7---------------7---------------3---------------3-------|
B|---------7---------------7---------------3---------------3-------|
G|---------8---------------8---------------4---------------4-------|
D|-----------------------------------------------------------------|
A|-9-9-9-9---9-9-9-9-9-9-9---9-9-9-5-5-5-5---5-5-5-5-5-5-5---5-5-5-|
E|-7-7-7-7---7-7-7-7-7-7-7---7-7-7-3-3-3-3---3-3-3-3-3-3-3---3-3-3-|
 pm. . . .   . . . . . . .   . . . . . . .   . . . . . . .   . . . 
bridge (continued):
E|---------7---------------7---------------0---------------0-------|
B|---------7---------------7---------------0---------------0-------|
G|---------8---------------8---------------1---------------1-------|
D|-----------------------------------------------------------------|
A|-9-9-9-9---9-9-9-9-9-9-9---9-9-9-2-2-2-2---2-2-2-2-2-2-2---2-2-2-|
E+-7-7-7-7---7-7-7-7-7-7-7---7-7-7-0-0-0-0---0-0-0-0-0-0-0---0-0-0-|
 pm. . . .   . . . . . . .   . . . . . . .   . . . . . . .   . . .
 
bridge (continued):
E|---------7---------------7---------------3---------------3-------|
B|---------7---------------7---------------3---------------3-------|
G|---------8---------------8---------------4---------------4-------|
D|-----------------------------------------------------------------|
A|-9-9-9-9---9-9-9-9-9-9-9---9-9-9-5-5-5-5---5-5-5-5-5-5-5---5-5-5-|
E|-7-7-7-7---7-7-7-7-7-7-7---7-7-7-3-3-3-3---3-3-3-3-3-3-3---3-3-3-|
 pm. . . .   . . . . . . .   . . . . . . .   . . . . . . .   . . . 

bridge end:
E|-----------------------------------------------------------------|
B|-----------------------------------------------------------------|
G|-----5-----5---5-----4-----4---4---------------------------------|
D|---5-----5---------4-----4-----------5-----5---5-2---------------|
A|-3-----3-----3---2-----2-----2-----5-----5-------2---------------|
E+---------------------------------3-----3-----3---0---------------+

  outro:                            slow down about here
E|---------------------------------|---------------------------------|
B|---------------------------------|---------------------------------|
G|---------------------------------|---------------------------------|
D|---------------------------------|---------------------------------|
A|-0---------------3-0-7-6~--------|-3-0-7-6~--------3-0-7-6~--------|
E|---------------------------------|---------------------------------|
                    use a pinch
              harmonic on the 6's throughout here     

yup.


Tap to rate this tab
# A B C D E F G H I J K L M N O P Q R S T U V W X Y Z