Song name
# A B C D E F G H I J K L M N O P Q R S T U V W X Y Z

Daphne Loves Derby - These Ghosts My Hopes The Sand The Sea tab

Standard Tuning EADGBe
I did this by ear over a span of a few days. Feel free to leave feedback

Intro:
e|------0--------0--------0------|
B|------0--------0--------0------|
G|------6--------7--------11-----| x1
D|------7--------9--------12-----|
A|------5--------7--------10-----|
E|------X--------X--------X------|
       x8       x8        x16
Verse:
e|------0--------0--------0------|
B|------0--------0--------0------|
G|------6--------7--------11-----| x3   (you play this part 4 times in the
D|------7--------9--------12-----|       second Verse)
A|------5--------7--------10-----|
E|------X--------X--------X------|
       x8       x8        x16

e|------0--------0--------0------|
B|------0--------0--------2------|
G|------6--------7--------0------| x1
D|------7--------9--------2------|
A|------5--------7--------0------|
E|------X--------X--------X------|
       x8       x8       x16
Chorus:
i think it sounds alright just playing this the whole way through haha but I'm sure 
more to it
e|------0------|
B|------0------|
G|------0------|
D|------4------|
A|------5------|
E|------3------|

The little background guitar part for the chorus
e|---10----9----7----5----| (let each note ring a bit)
B|------------------------|
G|------------------------|
D|------------------------|
A|------------------------|
E|------------------------|

Outro: Starts when he says "I am a ghost, a grave, the sea" up until the end of the song
e|------0--------0--------0------|
B|------0--------0--------0------|
G|------6--------7--------11-----| x5
D|------7--------9--------12-----|
A|------5--------7--------10-----|
E|------X--------X--------X------|
       x8       x8        x16

The song ends on this chord
e|------0------|
B|------0------|
G|------6------|
D|------7------|
A|------5------|
E|------X------|
Tap to rate this tab
 
# A B C D E F G H I J K L M N O P Q R S T U V W X Y Z