Song name
# A B C D E F G H I J K L M N O P Q R S T U V W X Y Z

Dark Age - Storm tab

Tabs for the solo from Dark age: STORM
its all tapping


   T      T      T      T      T      T      T      T
-----------------------------------------------------------|
-----------------------------------------------------------|
-----------------------------------------------------------|
---10-7---10-7---10-7---10-7---10-7---10-7---9-7----9-7----| x2
-----------------------------------------------------------|
-----------------------------------------------------------|


   T      T      T      T      T      T      T        T       T      T
----------------------------------------------------------------------------|
----------------------------------------------------------------------------|
----------------------------------------------------------------------------|
---10-7---10-7---10-7---10-7---10-7---10-7---14-11----14-11---12-9---12-9---|
----------------------------------------------------------------------------|
----------------------------------------------------------------------------|

Fast Part

   T      T      T      T      T      T      T      T      T      T      T
------------------------------------------------------------------------------|
------------------------------------------------------------------------------|
------------------------------------------------------------------------------|
---10-7---10-7---10-7---10-7---10-7---10-7---10-7---10-7---10-7---10-7---10-7-|
------------------------------------------------------------------------------|
------------------------------------------------------------------------------|
  T      T     T      T     T     T     T     T     T
---------------------------------------------------------|
---------------------------------------------------------|
---------------------------------------------------------|
--10-7---10-7--10-7---9-7---9-7---9-7---9-7---9-7---9-7--| 2x
---------------------------------------------------------|
---------------------------------------------------------|


   T      T      T      T      T      T      T      T      T      T      T
------------------------------------------------------------------------------|
------------------------------------------------------------------------------|
------------------------------------------------------------------------------|
---10-7---10-7---10-7---10-7---10-7---10-7---10-7---10-7---10-7---10-7---10-7-|
------------------------------------------------------------------------------|
------------------------------------------------------------------------------|


  T      T     T      T     T     T     T     T       T      T
-------------------------------------------------------------------|
-------------------------------------------------------------------|
-------------------------------------------------------------------|
--10-7---10-7--10-7---14-11---14-11---14-11---14-11---12-9---12-9--|
-------------------------------------------------------------------|
-------------------------------------------------------------------|


----------------------------fast part 2 times--------------------------------
thats all
thanks
Tap to rate this tab
# A B C D E F G H I J K L M N O P Q R S T U V W X Y Z