Song name
# A B C D E F G H I J K L M N O P Q R S T U V W X Y Z

Dark Dark Dark - Patsy Cline chords

Highlighted       Show chord diagrams
Band: Dark Dark Dark
Song: Patsy Cline

Tab by DanaG

Standard tuning, down 1/2 step (Eb-Ab-Db-Gb-Bb-Eb)
Song is in 3/4 (waltz) time

Chords:

E:    022100
G#:   466544
A:    577655
Am:   577555
C#m:  x46654
B:    x24442
[ch]G#/C[/ch]: x3654x


Intro:

The chord progression is C#m-B-A-E

Here's a fingerpicking arrangment of the piano part.

      C#m              B             A             E

----|----9-----------|---7---------|---5---------|---4---------|-------------|
----|----------------|-------------|-------------|-------5---5-|-------------|
-9--|---------9----8-|-------8---6-|-------6---4-|-------------|---4---6---6-|
----|-11---11---11---|-9---9---9---|-7---7---7---|-6---6---6---|-6---6---6---|
----|----------------|-------------|-------------|-------------|-------------|
----|----------------|-------------|-------------|-------------|-------------|

  C#m           B             A             E

|-------------|-------------|-------------|---0---------|---0---------|
|---5---------|---4---------|---2---------|-------------|-------------|
|-------6---4-|-------4---2-|-------2---1-|-------1---1-|-------1-----|
|-------------|-------------|-------------|-------------|-------------|
|-4---4---4---|-2---2---2---|-0---0---0---|-------------|-------------|
|-------------|-------------|-------------|-0---0---0---|-0---0---0---|


Verse 1:
 E        G#       A               E                     G#   A   E
And if I said, I never thought of you, Well that'd be a lie.
    E         G#       A             E                   G#   A   Am
An old photograph that I don't even have, I think of it now.


Chorus:
    C#m             B         A          E
And I thought we'd meet up in a week or two
    C#m             B         A            E
And we'd slow-dance to Patsy Cline at the bar
    C#m             [ch]G#/C[/ch]  A  E
But now that you're gone
    [ch]G#/C[/ch]     C#m    E
My life goes on.


Repeat first half of intro (i.e., once through the C#m-B-A-E progression)


Verse 2:
     E          G#              A            E                      G#       A    E
If someone had said that this feeling would end, oh would you have heard them?
     E          G#              A            E                      G#         A    Am
If someone had said that this feeling would end, would you have believed them?


Chorus:
C#m             B         A          E
I thought we'd meet up in a week or two
    C#m             B         A            E
And we'd slow-dance to Patsy Cline at the bar
    C#m             [ch]G#/C[/ch]  A  E
But now that you're gone
    [ch]G#/C[/ch]     C#m    E
My life goes on.


Interlude:
  [ch]G#/C[/ch]   C#m       G#         A    Am       E
I know I said I'd save this last dance for you
         [ch]G#/C[/ch]          C#m    [ch]G#/C[/ch]           A   Am        E
So even though that Tenessee Waltz makes me cry, cry every time
                [ch]G#/C[/ch]            C#m       [ch]G#/C[/ch]            A   
Well all go on dancing, I will dance this last dance for you,
      Am         E
This last dance for you


Chorus:
    C#m             B         A          E
And I thought we'd meet up in a week or two
    C#m             B         A            E
And we'd slow-dance to Patsy Cline at the bar
    C#m             [ch]G#/C[/ch]  A  E
But now that you're gone
    [ch]G#/C[/ch]     C#m    E
My life goes on.
    C#m             [ch]G#/C[/ch]  A  E
And now that you're gone
    [ch]G#/C[/ch]     C#m    E
My life goes on.


Outro: repeat intro progression
Tap to rate this tab
 
# A B C D E F G H I J K L M N O P Q R S T U V W X Y Z