Guitaretab - guitar tabs
Song name
# A B C D E F G H I J K L M N O P Q R S T U V W X Y Z

Darkest Hour - Sanctuary tab

This song's pretty basic
so i'll just do the riffs

please rate and comment
ewlord-1492@hotmail.com
sorry, no powertab for this one


start with:
D-----------|
A-----------|
F-----------|
C--8-7------|
G--6-5-8-7--|
C------8-7--|

Verse Riff: (play 2x, second time end on above part)

Guitar 1
D------------------------------------------------------------------|
A------------------------------------------------------------------|
F------------------------------------------------------------------|
C------------------------------------------------------------------|
G--8-----5---------------------7---8-----5-----------------8-8-7-5-|
C----0-0---0-0-0-0-0-0-0-0-7-7---7---5-5---5-5-5-5-5-5-5-5---------|

D-------------------------------------------------------------------|
A-------------------------------------------------------------------|
F-------------------------------------------------------------------|
C-------------------------------------------------------------------|
G--8-----5---------------------7---8-----7---8-----0000444488887777-|
C----0-0---0-0-0-0-0-0-0-0-7-7---7---8-8---8---8-8------------------|

Guitar 2
D------------------------------------------------------------------|
A------------------------------------------------------------------|
F------------------------------------------------------------------|
C--7---------------------------5---7-----------------------7-7-5---|
G--------8-------------------------------8-----------------------7-|
C----0-0---0-0-0-0-0-0-0-0-7-7---7---5-5---5-5-5-5-5-5-5-5---------|

D-------------------------------------------------------------------|
A-------------------------------------------------------------------|
F-------------------------------------------------------------------|
C--7-------------------------------8-----7---8-------------77775555-|
G--------8---------------------7-------------------77778888---------|
C----0-0---0-0-0-0-0-0-0-0-7-7---7---8-8---8---8-8------------------|


Pre-chorus Riff: (play 2x, palm mute first time, don't mute second time)

Guitar 1
D-----------------|---------------------|-------------------|
A-----------------|---------------------|-------------------|
F------(4x)-------|---------(2x)--------|-------------------|
C-----------------|---------------------|-------------------|
G-8-7-5-8-7-5-8-7-|--10-8-7-10-8-7-10-8-|--8~--8~--8~--8~---|
C-----------------|---------------------|-------------------|
[ Tab from: http://www.guitaretab.com/d/darkest-hour/162145.html ]
Guitar 2
D-----------------|------------------|-------------------|
A-----(4x)--------|-------(2x)-------|-------------------|
F-----------------|------------------|-------------------|
C-7-5-3-7-5-3-7-5-|--8-7-5-8-7-5-8-7-|--7~--7~--7~--7~---|
G-----------------|------------------|-------------------|
C-----------------|------------------|-------------------|

Then play the Verse again 2x

Then the Chorus: (3x)

Guitar 1 (dunno if it's strumming or not. just do what sounds right)
D---------------------------------------------------------------|
A---------------------------------------------------------------|
F--7~----7~----7~----5~-----------------------------------------|
C--7~----8~----5~----3~-----------------------------------------|
G--5~----5~----6~----3~-----------------------------------------|
C---------------------------------------------------------------|

Guitar 2 (dunno what he's doing, but its on that note.. maybe tremolo and bend?)
D---------------------------------------------------------------|
A---------------------------------------------------------------|
F--7~-----------------------------------------------------------|
C---------------------------------------------------------------|
G---------------------------------------------------------------|
C---------------------------------------------------------------|

Then the Post-chorus: (2x)

Both Guitars:
D-----------------------------------------------------------|
A-----------------------------------------------------------|
F-----------------------------------------------------------|
C--7-----7~------8-----8~------8-----8~------10-----10--7~--|
G--5-----5~------5-----5~------6-----6~------8------8---4~--|
C----0-0-----0-0---0-0-----0-0---0-0-----0-0----0-0---------|

Then the Verse again 2x

Then the last part:

Guitar 1 (palm muted)
D-----------------|---------------------|-------------------|
A-----------------|---------------------|-------------------|
F------(4x)-------|---------(2x)--------|-------------------|
C-----------------|---------------------|-------------------|
G-8-7-5-8-7-5-8-7-|--10-8-7-10-8-7-10-8-|--8~--8~--8~--8~---|
C-----------------|---------------------|-------------------|

Guitar 2 (palm muted)
D-----------------|------------------|-------------------|
A-----(4x)--------|-------(2x)-------|-------------------|
F-----------------|------------------|-------------------|
C-7-5-3-7-5-3-7-5-|--8-7-5-8-7-5-8-7-|--7~--7~--7~--7~---|
G-----------------|------------------|-------------------|
C-----------------|------------------|-------------------|

Both Guitars (strumming)
D------------------------------------------------------------------|
A------------------------------------------------------------------|
F------------------------------------------------------------------|
C--0---------5---------7---------8---------------------------------|
G--0--(16x)--5--(16x)--7--(16x)--8--(8x)--X\\\\\\---------------0--|
C--0---------5---------7---------8--------X\\\\\\--000000000000-0--|


There ya go
Related for Sanctuary tab
Advertisement will be closed in 10 seconds