Song name
# A B C D E F G H I J K L M N O P Q R S T U V W X Y Z

Darkness - Black Shuck tab

key

pm . = palm mute
b = bend
() = let notes ring
* = read footnote
~ = pull on wammy bar

(0:00)
e|------------------------------------------------------(2)------|
B|------------------------------------------------------(3)--(2)-|
G|--------------------------------2---------------------(2)--(2)-|
D|----------------2---------------0---------------------(0)--(2)-|
A|----2-2---2-2-2-0---2-2---2-2-2---2-2---2-2-2-2-0----------(0)-|
E|-3b-0-0---0-0-0-----0-0---0-0-0---0-0---0-0-0-----3-0----------|
pm    . . . . . .     . .   . . .   . .   . . . . . . . 

(0:08)
e|-------------------------------------------(2)------|   R
B|-------------------------------------------(3)--(2)-|   E
G|---------------------2---------------------(2)--(2)-|   P
D|-----2---------------0---------------------(0)--(2)-|   E
A|-2-2-0---2-2---2-2-2---2-2---2-2-2-2-0----------(0)-|   A
E|-0-0-----0-0---0-0-0---0-0---0-0-0-----3-0----------|   T
pm . .      . .   . .    . .   . . . . . .                S

(0:41)
e|-----------------------------------------|   R
B|-*-----------------------------------(2)-|   E
G|-*-----------------------------------(2)-|   P
D|-*-2-2-5-5-5-5-3-3-3-3-3-----2-----0-(2)-|   E
A|-*-0-0-0-0-0-0-0-0-0-0-0---2-----0---(0)-|   A
E|-------------------------3-----2---------|   T
pm   . . . . . . . . . . . . . . . . .  
*continue holding these notes form previous line

(1:06)
e|------------------------------------------------------(2)------|
B|------------------------------------------------------(3)--(2)-|
G|--------------------------------2---------------------(2)--(2)-|
D|----------------2---------------0---------------------(0)--(2)-|
A|----2-2---2-2-2-0---2-2---2-2-2---2-2---2-2-2-2-0----------(0)-|
E|-3b-0-0---0-0-0-----0-0---0-0-0---0-0---0-0-0-----3-0----------|
pm    . . . . . .     . .   . . .   . .   . . . . . . . 

(1:13)
e|-------------------------------------------(2)------|   
B|-------------------------------------------(3)--(2)-|   
G|---------------------2---------------------(2)--(2)-|   
D|-----2---------------0---------------------(0)--(2)-|   
A|-2-2-0---2-2---2-2-2---2-2---2-2-2-2-0----------(0)-|   
E|-0-0-----0-0---0-0-0---0-0---0-0-0-----3-0----------|   
pm . .      . .   . .    . .   . . . . . .  
              
(1:20)
e|-----------------------------------------|   R
B|-*-----------------------------------(2)-|   E
G|-*-----------------------------------(2)-|   P
D|-*-2-2-5-5-5-5-3-3-3-3-3-----2-----0-(2)-|   E
A|-*-0-0-0-0-0-0-0-0-0-0-0---2-----0---(0)-|   A
E|-------------------------3-----2---------|   T
pm   . . . . . . . . . . . . . . . . .  
*continue holding these notes form previous line

(1:46)
e|------------------------------------------------------(2)------|
B|------------------------------------------------------(3)--(2)-|
G|--------------------------------2---------------------(2)--(2)-|
D|----------------2---------------0---------------------(0)--(2)-|
A|----2-2---2-2-2-0---2-2---2-2-2---2-2---2-2-2-2-0----------(0)-|
E|-3b-0-0---0-0-0-----0-0---0-0-0---0-0---0-0-0-----3-0----------|
pm    . . . . . .     . .   . . .   . .   . . . . . . . 

(1:53)
e|-------------------------------------------(2)-----------|   
B|-------------------------------------------(3)-------(2)-|   
G|---------------------2---------------------(2)-------(2)-|   
D|-----2---------------0---------------------(0)-------(2)-|   
A|-2-2-0---2-2---2-2-2---2-2---2-2-2-2-0---------------(0)-|   
E|-0-0-----0-0---0-0-0---0-0---0-0-0-----3-0---------------|   
pm . .      . .   . .    . .   . . . . . .  

(2:05)
e|-----------|  After you hit this the drum solo begins and the guitar 
B|-----------|  is under some feedback.
G|-----------|  
D|-----2---0-|
A|---2-----0-|
E|-3-----2---|

(2:20)
e|---|   repeats 31 more times (total of 32) at 8th notes tempo
B|---|
G|-2-|
D|-2-|
A|-0-|
E|---|

(2:31)
e|----|
B|----|
G|-2~-|
D|-2~-|
A|-0~-|
E|----|
pm .

(2:33)
e|------------------------------------------------------(2)------|
B|------------------------------------------------------(3)--(2)-|
G|--------------------------------2---------------------(2)--(2)-|
D|----------------2---------------0---------------------(0)--(2)-|
A|----2-2---2-2-2-0---2-2---2-2-2---2-2---2-2-2-2-0----------(0)-|
E|-3b-0-0---0-0-0-----0-0---0-0-0---0-0---0-0-0-----3-0----------|
pm    . . . . . .     . .   . . .   . .   . . . . . . . 

(2:40)
e|-------------------------------------------(2)-----------|   
B|-------------------------------------------(3)-------(2)-|   
G|---------------------2---------------------(2)-------(2)-|   
D|-----2---------------0---------------------(0)-------(2)-|   
A|-2-2-0---2-2---2-2-2---2-2---2-2-2-2-0---------------(0)-|   
E|-0-0-----0-0---0-0-0---0-0---0-0-0-----3-0---------------|   
pm . .      . .   . .    . .   . . . . . .  

(2:53)
e|-------------------------------------------(2)-|   
B|-------------------------------------------(3)-|   
G|---------------------2---------------------(2)-|   
D|-----2---------------0---------------------(0)-|   
A|-2-2-0---2-2---2-2-2---2-2---2-2-2-2-0---------|   
E|-0-0-----0-0---0-0-0---0-0---0-0-0-----3-0-----|   
pm . .      . .   . .    . .   . . . . . . 

(3:04)
e|-*-------|   crashs
B|-*---(2)-|
G|-*---(2)-|
D|-*---(2)-|
A|-*---(0)-|
E|-*-------|

this is my first tab so enjoy
Tap to rate this tab
# A B C D E F G H I J K L M N O P Q R S T U V W X Y Z