Song name
# A B C D E F G H I J K L M N O P Q R S T U V W X Y Z

Darkside - Heart tab

-------------------------------------------------------------------------------
                            Darkside - Heart
-------------------------------------------------------------------------------
Tabbed by: Tim van Kester

Tuning: Standard

-------------------------------------------

During the intro, some heavy echoing guitar. Some notes could be tabbed
'too much'. Also, it could be that he used a whammy or octaver or whatever,
as he goes fairly high up on the neck. For notes higher than the 21st fret,
you could just lower it 12 frets.
e|----11~--------11----11~---------pb14r13~----------16~----16\14~-----------|
B|-11---------11----11----------------------------16-------------------------|
G|---------------------------------------------------------------------------|
D|---------------------------------------------------------------------------|
A|---------------------------------------------------------------------------|
E|---------------------------------------------------------------------------|

e|-14---18---23~-----|
B|-------------------|
G|-------------------|
D|-------------------|
A|-------------------|
E|-------------------|


One minute into the song, the singing starts. I think there are multiple
layers of guitar:
1) palm-muted 
e|----------------------------------------------------------|
B|----------------------------------------------------------|
G|----------------------------------------------------------|
D|----------------------------------------------------------|
A|-6--6--6--6----4--4--4--4---------------------------------|
E|-------------6-------------6-8--8--8--8--6-6--6--6--6-----|

2) 
e|----------------------------------------------------------|
B|-7--7--7--7----9--9--9--9----11-11-11-11---14-14-11-11----|
G|-8--8--8--8----6--6--6--6----11-11-11-11---13-13-11-11----|
D|----------------------------------------------------------|
A|----------------------------------------------------------|
E|----------------------------------------------------------|

These continue for a while. It will stop somewhere.
At the end of the second time these are played, this tiny riff 
starts and 'the' riff starts right after:
e|---------|------------------------------------------------------|
B|---------|--11-----11----------11----11-----11----------11------|
G|---------|--11h13--11h13-11----11----11h13--11h13-11----11h13---|
D|-6--4----|------------------13-----------------------13---------|
A|------6--|------------------------------------------------------|
E|---------|------------------------------------------------------|

e|---------------------------------------------|
B|-11-----11-------------11--11--11------------|
G|-11h13--11h13-11-------11--13--11------------|
D|-----------------13-11------------13-11------|
A|---------------------------------------------|
E|-----------------------------------------11--|

After two times, this riff is played. Let's call it 'riff 2':
e|---------------------------------------------------------------------------|
B|---------------------------------------------------------------------------|
G|---------------11--------------------------------------------------11------|
D|--------11-13-----13-----11--13-----11-13--x--13------------11-13-----13---|
A|-11-13----------------13---------13------------------11-13-----------------|
E|--------------------------------------------------11-----------------------|

e|----------------------------------|
B|----------------------------------|
G|---------------------11-----------|
D|-11-13-11-----11-13-----13--11----|
A|----------13----------------------|
E|-------------------------------11-|

The last time, don't end on only that 11th fret, but:
e|-11--|
B|-11--|
G|-11--|
D|-13--|
A|-13--|
E|-11--|



The break:
e|-------------------------------------11~------------------16~--------------|
B|---------9~--------13~---------------11~--------14~------------------14----|
G|-------------------------------10/11------------13~---/18---------15----15-|
D|-----/11-------/13--------------------------/11----------------------------|
A|---------------------------------------------------------------------------|
E|---------------------------------------------------------------------------|

Singing starts again, about some island. Not sure if there is any guitar here,
but you could play these chords (maybe move them up an octave for variation):
e|-11----9----------------11----9---------------|
B|-11----9----13----13----11----9----13----11---|
G|-11----10---13----13----11----10---13----11---|
D|-13----11---13----13----13----11---13----11---|
A|-13----11---11----11----13----11---11----9----|
E|-11----9----------------11----9---------------|

You, you, you....
e|--------------------------|
B|--------------------------|
G|-11~----------------------|
D|--------13--11----11------|
A|----------------------11--|
E|--------------------------|

Again, as this is only played once, chords I think that fit:
e|-11----9---------------|
B|-11----9----13----13---|
G|-11----10---13----13---|
D|-13----11---13----13---|
A|-13----11---11----11---|
E|-11----9---------------|

Riff 2 comes in again. However, I think it sounds slightly different, maybe
one or two notes. Nothing to care too much about.
After that, 'the' riff comes back, riff 2 will come back again and is played
simultaneously.

'The' riff, however, will change a bit. From the moment both riffs are played
together:
e|---------------------------------------------------------------------------|
B|-11-----11----------11----11-----11----------11-------11-----11------------|
G|-11h13--11h13-11----11----11h13--11h13-11----11h13----11h13--11h13-11------|
D|-----------------13-----------------------13--------------------------13---|
A|---------------------------------------------------------------------------|
E|---------------------------------------------------------------------------|

e|---------------------------------------------------------------------------|
B|----11----11----11----11----11----11-----11-----11---------11-----11-------|
G|-11-11h13-11h13-11h13-11h13-11h13-11h13--11h13--13-p11-----11h13--11-------|
D|-------------------------------------------------------13------------------|
A|---------------------------------------------------------------------------|
E|---------------------------------------------------------------------------|

e|---------------------------------------------------------------------------|
B|----------------------------------------------------------------------14---|
G|-11/15--15---13p11------11h13--13~13~13~13~13~13~13~13~-/15-15-15--15----15|
D|-------------------13------------------------------------------------------|
A|---------------------------------------------------------------------------|
E|---------------------------------------------------------------------------|

e|-14----------|                              |-14------|
B|-------------|                              |----16~--|
G|----15-15-15-|  Although I like ending with |---------|
D|-------------|                              |---------|
A|-------------|                              |---------|
E|-------------|                              |---------|

That's it. Please comment if you like or dislike.

************************************

| /   slide up
| \   slide down
| h   hammer-on
| p   pull-off
| ~   vibrato
| +   harmonic
| x   Mute note
| b   Bend
| pb  Pre-bend
| br  Bend release
| pbr Pre-bend release
| brb Bend release bend

************************************
Tap to rate this tab
# A B C D E F G H I J K L M N O P Q R S T U V W X Y Z