Song name
# A B C D E F G H I J K L M N O P Q R S T U V W X Y Z

Darling Violetta - Angel Theme tab

tabbed by kuroitora

Tuning: Standard

E-----------------------------------------------------------------------|
B-----------------------------------------------------------------------|
G----------7----------------------------------7-------11-12-------------|
D------------10-9-------------------------------10-9--------10-10-10----|
A--7-9-10----------12-10-9--7-9-10----7-9-10----------------------------|
E----------------------------------8------------------------------------|

E-----------------------------------------------------------------------|
B-----------------------------------------------------------------------|
G-----------------------------------------------------------------------|
D------------------------------7-10-9-10-9-7-12-10-9--------------------|
A----9-7-9-7-9-10----9-7-9-10------------------------12-10-9------------|
E--7---------------7----------------------------------------------------|

E-----------------------------------------------------|
B-----------------------------------------------------|
G----------7------------------------------------------|
D-----------------11-12-----------9-16(tap)-----------|
A--7-9-10----10-9--------10-10-10---------------------|
E-----------------------------------------------------|
Tap to rate this tab
# A B C D E F G H I J K L M N O P Q R S T U V W X Y Z