Song name
# A B C D E F G H I J K L M N O P Q R S T U V W X Y Z

Darren Korb - Spike In A Rail tab

Here you go guys! Finally got 'round to tabbing it.

d|------------------------|
A|------------------------|
F|------------------------|
C|----0h3-0--0--0--0--0~--|
G|0h3---------3-----3-3/5-|
C|------------------------|

d|---------------------|
A|---------------------|
F|---------------------|
C|----0h3-0--0--0------|
G|0h3---------3--3---0-|
C|-----------------3-0-|

d|------------------------|
A|------------------------|
F|------------------------|
C|----0h3-0--0--0--0--0~--|
G|0h3---------3-----3-3/5-|
C|------------------------|

d|--------------------------|
A|--------------------------|
F|--------------------------|
C|3h5p3p0-------------------|
G|--------3h5p3p0---------0-|
C|----------------5h7p5/3-0-| Back to Start

Thanks!
 - Dom L
Tap to rate this tab
 
# A B C D E F G H I J K L M N O P Q R S T U V W X Y Z