Song name
# A B C D E F G H I J K L M N O P Q R S T U V W X Y Z

Dashboard Confessional - Hands Down Acoustic tab

I've watched him play this live and I'm pretty sure this is 99% right... anyways it 
right and if you watch him play it you'll see that is played like this.

intro:
eb:-----------------------------------|
Bb:-----------------------------------|
Gb:-------1----------1-2--------------| X3
Db:-----4---2------4----------4/6-----|
Ab:---2----------2----------2---------|
Eb:-0----------0----------0-----------|

intro cont.
eb:--------------------------|
Bb:--------------------------|
Gb:-------1------------------|
Db:-----4---2-------4--1~----|
Ab:---2----------2--4--2~----|
Eb:-0----------0-------------|


Play the verse Part 1 & the verse Part 2 two times

verse: Part 1
(The first strum is open but then its palm muted for 12 stums i believe. you can figure 
the strum patteren, its easy)

      Breath in...   Luck...         Deep...         Blessed...
eb:--------------------------------------------------------------------|
Bb:--------------------------------------------------------------------|
Gb:-1--1---------------------------------------------------------------|
Db:-2--2-------------2--2------------2--2------------4--4--------------|
Ab:-2--2-------------4--4------------0--0------------2--2--------------|
Eb:--------------------------------------------------------------------|
pm.    .............    ............    ............    .......

verse: Part 2
    Share   With...
eb:-----------------------|
Bb:-----------------------|
Gb:-----------------------|
Db:-7-7-7-7-6-6-6-6-------|
Ab:-5-5-5-5-5-5-5-5-------|
Eb:-5-5-5-5-5-5-5-5-------|

Play verse: Part 3 once

verse: Part 3
    Your...         Smooth...        Graze...        Fine...
eb:--------------------------------------------------------------------|
Bb:--------------------------------------------------------------------|
Gb:-1--1---------------------------------------------------------------|
Db:-2--2-------------2--2------------2--2------------4-----------------|
Ab:-2--2-------------4--4------------0--0------------2-----------------|
Eb:--------------------------------------------------------------------|
pm.    .............    ............    ............    Pause

chorus:

(figure out strumming patteren)

    My...  Kill... Kill me.. Happy...
eb:--------4-----------------4-----------------------|
Bb:--------4-------2---------4-----------------------|
Gb:-1------4-------1---------4-----------------------|
Db:-2------6-------2---------6-------------6/7/6-----|
Ab:-2------6-----------------6-----------4-------4---|
Eb:--------4-----------------4---------5-----------5-|


    My..   Burst.. Bury..    Jewlery.. Which.. prefer
eb:--------4-----------------4-------------------------|
Bb:--------4-------2---------4-------------------------|
Gb:-1------4-------1---------4-------------------------|
Db:-2------6-------2---------6---------7-7-7-7-6-6-6-6-|
Ab:-2------6-----------------6---------5-5-5-5-5-5-5-5-|
Eb:--------4-----------------4---------5-5-5-5-5-5-5-5-|


The second verse is played a little different

Play the verse Part 1 & the verse Part 2 two times

verse: Part 1

    The words...     Busted...       Entwined...     Undiscovered...
eb:--------------------------------------------------------------------|
Bb:--------------------------------------------------------------------|
Gb:-1--1---------------------------------------------------------------|
Db:-2--2-------------2--2------------2--2------------4--4--------------|
Ab:-2--2-------------4--4------------0--0------------2--2--------------|
Eb:--------------------------------------------------------------------|
pm.    .............    ............    ............    .......

verse: Part 2

eb:-----------------------|
Bb:-----------------------|
Gb:-----------------------|
Db:-7-7-7-7-6-6-6-6-------|
Ab:-5-5-5-5-5-5-5-5-------|
Eb:-5-5-5-5-5-5-5-5-------|

Play verse: Part 3 once

verse: Part 3

       Stay...       Near...         Hear            Get some...
eb:--------------------------------------------------------------------|
Bb:--------------------------------------------------------------------|
Gb:-1--1---------------------------------------------------------------|
Db:-2--2-------------2--2------------2--2------------4-----------------|
Ab:-2--2-------------4--4------------0--0------------2-----------------|
Eb:--------------------------------------------------------------------|
pm.    .............    ............    ............    Pause

eb:-----------------------|
Bb:-----------------------|
Gb:-----------------------|
Db:-7-7-7-7-6-6-6-6-------|
Ab:-5-5-5-5-5-5-5-5-------|
Eb:-5-5-5-5-5-5-5-5-------|

Then play the chorus again

Then the outro

outro:

eb:-4------5-----------------------------------------|
Bb:-5------5------9----------------------------------|
Gb:-6------6------9------8---------------------------| X7 (I think)
Db:-6------7------9------9---------------------------|
Ab:-4------7------7------9---------------------------|
Eb:--------5-------------7---------------------------|

On 7th time end on E instead of the "7998" chord

    E
eb:-------------|
Bb:-------------|
Gb:-1~----------|
Db:-2~----------|
Ab:-2~----------|
Eb:-------------|
Tap to rate this tab
# A B C D E F G H I J K L M N O P Q R S T U V W X Y Z