Guitaretab - guitar tabs
Song name
# A B C D E F G H I J K L M N O P Q R S T U V W X Y Z
Home / D / Daughter / Youth tab

Daughter - Youth tab

            Shadows settle on the place…
e|-----------------------------------------------------------------------|
B|--------3--------3/5--------5--------5/8--------8--------8\7-------7\3-|
G|----0--------0----------0--------0----------0--------0---------0-------|
D|------0--------0----------0--------0----------0--------0---------0-----|
A|--2--------2----------3--------3----------7--------7---------5---------|
E|-----------------------------------------------------------------------|

            Our minds are troubled by…
e|-----------------------------------------------------------------------|
B|--------3--------3/5--------5--------5/8--------8--------8\7-------7\3-|
G|----0--------0----------0--------0----------0--------0---------0-------|
D|------0--------0----------0--------0----------0--------0---------0-----|
A|--2--------2----------3--------3----------7--------7---------5---------|
E|-----------------------------------------------------------------------|

    Destroy the middle...                                       From the
e|-----------------------------------------------------------------------|
B|--------3--------3/5--------5--------5/8--------8--------8\7-------7\3-|
G|----0--------0----------0--------0----------0--------0---------0-------|
D|------0--------0----------0--------0----------0--------0---------0-----|
A|--2--------2----------3--------3----------7--------7---------5---------|
E|-----------------------------------------------------------------------|

                                                                                Perfect 
start to the finish line...                     But if
e|-----------------------------------------------------------------------|
B|--------3--------3/5--------5--------5/8--------8--------8\7-------7\3-|
G|----0--------0----------0--------0----------0--------0---------0-------|
D|------0--------0----------0--------0----------0--------0---------0-----|
A|--2--------2----------3--------3----------7--------7---------5---------|
E|-----------------------------------------------------------------------|
[ Tab from: http://www.guitaretab.com/d/daughter/300698.html ]
   You’re still bleeding you’re the lucky one
e|-------------------------------------------------|
B|--3---------5--------------8---------------7\3---|
G|--0---------0--------------0-----------0---------|
D|-----------------------------------------0-------|
A|--2---------3--------------7---------5-----------|
E|-------------------------------------------------|

   Cause most of us are heaving through…                            Setting
e|-----------------------------------------------------------------------|
B|--------3--------3/5--------5--------5/8--------8--------8\7-------7\3-|
G|----0--------0----------0--------0----------0--------0---------0-------|
D|------0--------0----------0--------0----------0--------0---------0-----|
A|--2--------2----------3--------3----------7--------7---------5---------|
E|-----------------------------------------------------------------------|

    Fire to our insides for fun...                 Collecting
e|-----------------------------------------------------------------------|
B|--------3--------3/5--------5--------5/8--------8--------8\7-------7\3-|
G|----0--------0----------0--------0----------0--------0---------0-------|
D|------0--------0----------0--------0----------0--------0---------0-----|
A|--2--------2----------3--------3----------7--------7---------5---------|
E|-----------------------------------------------------------------------|

   Names of the lovers that went wrong…
e|-----------------------------------------------------------------------|
B|--------3--------3/5--------5--------5/8--------8--------8\7-------7\3-|
G|----0--------0----------0--------0----------0--------0---------0-------|
D|------0--------0----------0--------0----------0--------0---------0-----|
A|--2--------2----------3--------3----------7--------7---------5---------|
E|-----------------------------------------------------------------------|


e|----------------------------------------------------------------------------|
B|------8----------8---------8--------------------5-------5/7------7------7---|
G|---0----------0---------0--------0-----------0-------0--------0-------0-----|
D|----0----------0---------0--------0-----------0-------0--------0-------0----|
A|--7---------7---------7---------7---------2-3-------3--------5-------5------|
E|----------------------------------------------------------------------------|
(last line 4x, than back to the beginning and so on)
Related for Youth tab
Youth chords by Daughter