Song name
# A B C D E F G H I J K L M N O P Q R S T U V W X Y Z

Dave Baxter - The Journey tab

The Journey-Dave Baxter

Capo 7

Intro:

e|-----------------------------| 
B|-----------------------------|
G|--2h4p2p0--0---0-----0-------|
D|0--------2--2-2-2---4-4------|  4x
A|-------------3---3/5---5-----|
E|----------0------------------|  

Verse:

e|---------------------------| 
B|---------------------------|
G|2h4p2p0--0---0-----0-------|
D|-------2--2-2-2---4-4------|  4x
A|-----------3---3/5---5-----|
E|--------0------------------|  

Bridge: 

e|---------------------------| 
B|---------------------------|
G|2h4p2p0--0---0-----0-------|
D|-------2--2-2-2---4-4------|  2x
A|-----------3---3/5---5-----|
E|--------0------------------|  

Verse 2:

e|---------------------------| 
B|---------------------------|
G|2h4p2p0--0---0-----0-------|
D|-------2--2-2-2---4-4------|  4x
A|-----------3---3/5---5-----|
E|--------0------------------|  

Bridge: 

e|---------------------------| 
B|---------------------------|
G|2h4p2p0--0---0-----0-------|
D|-------2--2-2-2---4-4------|  2x
A|-----------3---3/5---5-----|
E|--------0------------------|  

Chorus:

  C     D     Em    D
e|0-----2-----0-----2|
B|1-----3-----0-----3|
G|0-----2-----0-----2|
D|2-----0-----2-----0| 8x
A|3-----x-----2-----x|
E|x-----x-----0-----x|

Outro:  

e|-----------------------------| 
B|-----------------------------|
G|--2h4p2p0--0---0-----0-------|
D|0--------2--2-2-2---4-4------|  8x and then fade out.
A|-------------3---3/5---5-----|
E|----------0------------------|  

I hope you enjoy the song. If there are any mistakes feel free to correct me: jamesa.pitt@gmail.com
http://davebaxtermusic.com/
Tap to rate this tab
# A B C D E F G H I J K L M N O P Q R S T U V W X Y Z