Song name
# A B C D E F G H I J K L M N O P Q R S T U V W X Y Z

Dave Grohl - Milk tab

TUNING IS Eb Ab Db Gb Bb Eb (NOTE!! SOME VERSIONS ON YOUTUBE ARE TUNED STANDARD)
VERSE:(LAST VERSE IS DIRTY OR HAS DISTORTION)
e------------------------------------------------|
B-------2-------2--------2-----------------------|
G-------2-------2--------2-----------------------|
D---0-0------------------------------------------|
A-----------2-2----------------------------------|
E--------------------2-2-------------------------|

CHORUS (REPEATS TWICE AND MULTIPLE TIMES AFTER LAST VERSE)
e--3--------------------------0----------0--------------------------|
B--0--------------------------0----------0--------------------------|
G--0----------------------------------------------------------------|
D--0---------3-3--3-3-3-----2----------2----------------------------|
A--2---------3-3--3-3-3-----2----------2----------------------------|
E--3---------1-1--1-1-1-----0-----2b3--0-------2b3------------------|

FIGURE OUT THE TIMING AND STRUMMING PATTERN FOR YOURSELF
THE G CHORD (FIRST CHORD OF CHORUS) IS STRUMMED MULTIPLE TIMES UNTIL IT CHANGES KIND 
QUICKLY TO AN F
Tap to rate this tab
# A B C D E F G H I J K L M N O P Q R S T U V W X Y Z