Song name
# A B C D E F G H I J K L M N O P Q R S T U V W X Y Z

Dave Matthews Band - Angel tab

Help us improve GuitareTab! Take a short survey!
Band:Dave Matthews Band
Song: Angel

Verse/Intro
First chord is NOT played to START the song
 B:-----------------------------------|
F#:-----------------------------------|
 D:-9------------------------------6--|
 A:-9----9h11--9-------------------7--|
 E:-7--------------9h11--9---7h9---7--|
 B:--------------------------------5--|
         1_3   1   1_3   1   1_3


Alternate Verse/Slower Jam
When Jamming, you can play a lot of variation to...well....anything
 B;-------------|
F#:-------------|
 D:-9--------6--|
 A:-9--------7--|
 E:-7--------7--|
 B:----------5--|


"When your not here"
 B:------------------------9----7--5-- <---3-|on5
F#:----------1/2---2-------------------------|
 D:-4-----1--------2----/9----7----5-- <---2-|on5
 A:-x--------------2-------------------------|
 E:-2----------------------------------------|
 B:------------------------------------------|
          1 (2)    1   (2) 3  2 3


"Why do I cry..."
 B:------------------------------------------|
F#:----------------------------------2-------|
 D:-------------4----------------4---2----5--|
 A:-4----6--8---4----4----6--8---4---2----6--|
 E:-4----4--6---2----4----4--6---2---0----x--|
 B:-2----4--6--------2----4--6------------4--|
                                     1


"You'll be my Angel..."
 B:---------------|
F#:-3----2h3---2--|
 D:-4----2h4---2--|
 A:-4----2-----2--|
 E:-5-------------|
 B:---------------|
         1     1


Faster Jam
Again, use a lot variation in here
 B:-------------------|
F#:-------------------|
 D:-15--------11---9--|
 A:-x---------x----x--|
 E:-13--------9----7--|
 B:-------------------|
Related for Angel tab