Song name
# A B C D E F G H I J K L M N O P Q R S T U V W X Y Z

Dave Matthews Band - Stone tab

Help us improve GuitareTab! Take a short survey!
There are two ways i know too play this song here is the first

e-----------------------------------------------------------------------|
b-----------------------------------------------------------------------|
g---------------2----0-------------2----0-------------------------------|
d-------3-3-2-0---3----------3-2-0---3----------------------------------|
a-----------------------------------------------------------------------|
e-----------------------------------------------------------------------|

bB              f
e-------------------------------------------------------------|
b-------------------------------------------------------------|
g-------------------------------------------------------------|
d-------------------------------------------------------------|
a-------------------------------------------------------------|
e-------------------------------------------------------------|

the second way is with a cupo ont he 3rd fret

e-------------------------------------------------------------------|
b-------------------------------------------------------------------|
g-------------------------------------------------------------------|
d----------------------7------5-------------------------------------|
a----------8-8---7--5------8----------------------------------------|
e-------------------------------------------------------------------|

then he goes b= bB and then d= F
Related for Stone tab