Song name
# A B C D E F G H I J K L M N O P Q R S T U V W X Y Z

Dave Matthews Band - Christmas Song tab

1st tab so....yea

from live at luther w/tim

the main riff:(verses)
e-----------------------------------------------------|
b-----------------------------------------------------|
g----7---7--7-------------------------------0---------|
d----4/--5--4-----0-----7---7--7----------------------|
a-----------------------4/--5--4----0h2-----2---------|
e-----------------------------------------------------|

...he was her boyfriend
e------------------------------------------|
b------------------------------------------|
g-----7----------4-------------------------|
d-----4----------5-------------------------|
a-----5----------2-------------------------|
e------------------------------------------|

part 2:(chorus)....love love love

e----------------------------------------------------------|
b----0-------2--------3-----3------------------------------|
g----------------------------------------------------------|
d----------------------------------------------------------|
a------------0--------2-----2------------------------------|
e----3-----------------------------------------------------|

thers one verse thats different from the others....but its just the same as the chorus


tim plays a little riff like at the end of each chorus riff...its something like

e--------------------------------------------------------|
b--------------------------------------------------------|
g--------------------------------------------------------|
d-------------------------9------------------------------|
a-----9-----5------------------9-------------------------|
e----------------7-----------------7---------------------|


thats it

enjoy.
Tap to rate this tab
# A B C D E F G H I J K L M N O P Q R S T U V W X Y Z