Song name
# A B C D E F G H I J K L M N O P Q R S T U V W X Y Z

Dave Matthews Band - Stand Up tab

-----------------------------------------------------------------------
			     Stand Up- Dave Matthews Band
-----------------------------------------------------------------------
Tabbed by: Me

Tuning: Standard

This is a fun one to play... what a great album. I figured this out in about 5 minutes
and I'm pretty sure I got these three main riffs 100% but there may be a few minor parts
to the song I missed. This is enough to play it though and have fun so enjoy!


Intro and Main Riff
e|--------------------------------------------------------------------|
B|--------------------------------------------------------------------|
G|------0-------------------------------------------------------------|
D|---------3-2-0------------------------------------------------------|
A|----------------3h5p3h5---------------------------------------------|
E|--3---------------------3-------------------------------------------|

Distorted Guitar Part During Verse
e|--------------------------------------------------------------------|
B|--------------------------------------------------------------------|
G|---4-----5-----6-----5----------------------------------------------|
D|---x-----x-----x-----x----------------------------------------------|
A|---5---5-5---5-5---5-5----------------------------------------------|
E|---3---3-3---3-3---3-3----------------------------------------------|

Electric Part During Bridges 
e|--------------------------------------------------------------------|
B|--------------------------------------------------------------------|
G|-8~-7-8-7-5-7-5-3/5/3~-4~--3----------------------------------------|
D|-x--x-x-x-x-x-x-x/x/x--x---x----------------------------------------|
A|-6~-5-6-5-3-5-3-1/3/1~-2~--1----------------------------------------|
E|--------------------------------------------------------------------|

| /  slide up
| \  slide down
| h  hammer-on
| p  pull-off
| ~  vibrato
| +  harmonic
| x  Mute note
=======================================================================
Tap to rate this tab
# A B C D E F G H I J K L M N O P Q R S T U V W X Y Z