Guitaretab - guitar tabs
Song name
# A B C D E F G H I J K L M N O P Q R S T U V W X Y Z

Dave Matthews Band - Busted Stuff tab

Play this and listen to the song for the rhythm and you'll be like dave

Intro and verse
E|-|------------|------------|---------------------------------------|
B|-|--1---1-----|--1---1-----|--1---1--------------------------------|
G|-|--0---0--4--|--0---0-----|--0---2---------------4-4--------------|
D|-|--0h2p0--5--|--0h2p0---4-|--0h2p0---2--4--2--4--5-5--------------|
A|-|--3---3--5--|--3---3---5-|--3---3---3--5--3--5--5-5--------------|
E|-|---------3--|----------5-|----------5--5--5--2--3-3--------------|
[ Tab from: http://www.guitaretab.com/d/dave-matthews-band/23470.html ]
 you Know she's goanna leave my 
               broken heart behind     I dig what she's giving up
chorus
E|-|------------|----------------|--------|-------------------------|
B|-|------------|----------------|--------|-------------------------|
G|-|------------|----------------|--------|-----4-------------------|
D|-|--4----2----|--5----44h5p4--|--4-2---|---4-5-------------------|
A|-|--5----3----|--5----5-------5|--5-3---|---5-5-------------------|
E|-|--5----5----|--3----2--------|--5-5---|---2-3-------------------|

Leading in to the end of the chorus      Yeah yeeeah, she's the one for me
E|-|------------|----------------|----------|-------------------------|
B|-|------------|----------------|----------|-------------------------|
G|-|------------|----------------|----------|---7---------------------|
D|-|--4----2----|--5----44h5p4--|--4---2---|---0---------------------|
A|-|--5----3----|--5----5-------5|--5---3---|---x---------------------|
E|-|--5----5----|--3----2--------|--5---5---|---6---------------------|

---------------------------------
spend your living days well;)
Related for Busted Stuff tab