Song name
# A B C D E F G H I J K L M N O P Q R S T U V W X Y Z

Dave Matthews Band - Lie In Our Graves tab

Help us improve GuitareTab! Take a short survey!
Intro
E---2-------------------3-------------------------------------|
B---3---------------------------------------------------------|
G---2-------------2-------------------------------------------|
D-----------0-2-4---4-----------------------------------------|
A-------4-2-------------2-------------------------------------|
E---------------------3-3-------------------------------------|
^ ^ ^
Repeat

E---2---------------------------------------------------------|
B---3------------------2--------------------------------------|
G---2------------------2--------------------------------------|
D----------0-4-7-4-0---2---2/5-4-2-4--------------------------|
A-------------------------------------------------------------|
E-------------------------------------------------------------|
^ ^ ^
Repeat

Ending

C,G,Am,F,F,G
^ ^ ^  ^ ^ ^
--3--------3---|
1---1----------|
----2--2-2-----|
2---2--3-3-----|
3-2----3-3-2---|
--3----1-1-3---|

(You might want to listen to the song before you play it)


Submitted by Preston L.

>>>>dMb<<<<
    ^^^
Related for Lie In Our Graves tab