Song name
# A B C D E F G H I J K L M N O P Q R S T U V W X Y Z

Dave Matthews Band - Shotgun tab

This is my First tab....I am about 99 percent sure about it
One thing though is dave rarely uses a capo


Capo on 5th Fret

e------------0-0--0-0------------------------0-0--0-0----------------|
b---1----1---3/5--5/3--0--1---0------3----3--3/5--5/3-0--1----0------|
g---0----0------------------2---0----3----3-----------------2---0----|
d---2----2-------------------------2-2--2-2--------------------------|
a-3-3--3-3-----------------------------------------------------------|
e--------------------------------------------------------------------|

e-----------0-0---0-0------------------------------------------------|
b---1----1--3/5---5/3--0-1---0-----1----1--3/5--5/3--1---0-----------|
g---2----2-----------------2---0---2----2--------------2---0---------|
d-2-2--2-2-----------------------3-3--3-3----------------------------|
a--------------------------------------------------------------------|
e--------------------------------------------------------------------|

That's It..Jam Away
Jarrett P.
Tap to rate this tab
# A B C D E F G H I J K L M N O P Q R S T U V W X Y Z