Song name
# A B C D E F G H I J K L M N O P Q R S T U V W X Y Z

Dave Matthews Band - Baby tab

Help us improve GuitareTab! Take a short survey!
Band:Dave Matthews Band
Song:Baby


"Baby, it's alright..."
E:-------------------------------|
B:-------------------------------|
G:-7--6------------5--4----------|
D:-7--7----7--6----5--5----5--4--|
A:---------7--7------------5--5--|
E:-------------------------------|


End of "Baby, it's alright..."
Last time this is shortened
E:--------------------------------------------------------------|
B:--------------------------------------------------------------|
G:-2--2--2--2--x--2--x--x--2-----2--2--2--2--x--2--2--2-- <---1-|
D:-0--2--2--0--x--2--x--x--2-----0--0--2--0--x--2--2--2-- <---2-|
A:--------------------------------------------------------------|
E:--------------------------------------------------------------|


Verse
E:-----------------------------------------|
B:-------------3--3-3----------------3--2--|
G:-------------2--2-2----------------2--2--|
D:----0-----0--0--0-0-------0-----0--0--2--|
A:-------4---------------------4--------0--|
E:-3---------------------3-----------------|
   2     4               2     4

E:----------------------------|
B:---------------------3-3-3--|
G:---------------------2-2-2--|
D:----0-----------0h2--0-0-0--|
A:-------4--2--4--------------|
E:-3--------------------------|
   2     4  1  4  (1)

E:----------------------------------------|
B:----------------3-3-----3-3----------3--|
G:----------------2-2-----2-2----------2--|
D:----0-----0--0--0-0---------------------|
A:-------4-------------4-------2----0-----|
E:-3--------------------------------------|
   2     4             4       1


"Ship in the bottle..."/"Woke up a..."
E:-------------------------(3)-(2)--|
B:--------------------------3---3---|
G:--------------------------2---2---|
D:----0-----------0h2--0--0-0---0---|
A:-------4--2--4--------------------|
E:-3--------------------------------|
   2     3  1  3  (1)


Bridge
E:--------------------------------------------------------------|
B:----3-----3-----3-----3--------3-----3-----3-----3----- <---3-|
G:----2-----2-----2-----2--------2-----2-----2-----2----- <---2-|on first 2(1on second 2)
D:--------------------------------------------------------------|
A:-2-----2-----2-----2--------4-----4-----4-----4---------------|
E:--------------------------------------------------------------|
   1     1     1     1        4     4     4     4

E:--------------------------------------------------------------|
B:----3-----3-----3-----3--------3-----3-----3-----3----- <---3-|
G:----2-----2-----2-----2--------2-----2-----2-----2----- <---1-|
D:-0-----0-----0-----0------------------------------------------|
A:--------------------------------------------------------------|
E:----------------------------3-----3-----3-----3---------------|
                              2     2     2     2
Related for Baby tab