Song name
# A B C D E F G H I J K L M N O P Q R S T U V W X Y Z

Dave Matthews Band - The Christmas Song tab

ok these tabs are ok but im tabbing the second guitar as well (Tim Reynolds)...i'm still
getting more of Tim's guitar soon...so here you go

Intro&Verse: play as many times as needed

(Dave)

e|------------------------------
B|------------------------------ 
G|---7----7--0------------------  
D|---4/5--4--0--7----7--0--5----
A|--------------4/5--4--0--2---- 
E|------------------------------

(Tim)  *He doesn't do it all the time but it sounds cool if u play it the whole time

e|---10---10-----------------------------------------------------------------|
B|----7/8--7-----10----10----------------------------------------------------|
G|----------------6/7---6---7-------------------------------------------------|
D|--------------------------5-------------------------------------------------|
A|---------------------------------------------------------------------------|
E|---------------------------------------------------------------------------|

This is the "boyfriend"or "husband"  part:
e-----------------
B---(hus)---(band)-
G---(boy)--(friend)-
D----4-----5-----
A----5-----3-----
E----------------

Chorus:

G  A Bm Bm *Between each chord tap down on the fretboard with your knuckles or scratch


Verse *play as many times as needed

(Dave)

e|------------------------------
B|------------------------------ 
G|---7----7--0------------------  
D|---4/5--4--0--7----7--0--5----
A|--------------4/5--4--0--2---- 
E|------------------------------

(Tim)  *He doesn't do it all the time but it sounds cool if u play it the whole time

e|---10---10-----------------------------------------------------------------|
B|----7/8--7-----10----10----------------------------------------------------|
G|----------------6/7---6---7-------------------------------------------------|
D|--------------------------5-------------------------------------------------|
A|---------------------------------------------------------------------------|
E|---------------------------------------------------------------------------|


Chorus:

G  A Bm Bm *Between each chord tap down on the fretboard with your knuckles or scratch

Verse: play once

e|------------------------------
B|------------------------------ 
G|---7----7--0------------------  
D|---4/5--4--0--7----7--0--5----
A|--------------4/5--4--0--2---- 
E|------------------------------

(Tim)  *He doesn't do it all the time but it sounds cool if u play it the whole time

e|---10---10-----------------------------------------------------------------|
B|----7/8--7-----10----10----------------------------------------------------|
G|----------------6/7---6---7-------------------------------------------------|
D|--------------------------5-------------------------------------------------|
A|---------------------------------------------------------------------------|
E|---------------------------------------------------------------------------|


For the "when jesus"  *Between each chord tap down on the fretboard with your knuckles or
scratch

G  Bm  G  A  Bm  G  A  Bm  G  A  Bm  G  A  Bm  Bm  G  A  Bm  Bm  G  A  Bm  Bm  G  A  *then verse

Keep playing verse until the chorus, then verse again, then chorus, then verse, then
 chorus, then verse, then chorus..just listen to the song you'll figure it out...


| /  slide up
| \  slide down
| h  hammer-on
| p  pull-off
| ~  vibrato
| +  harmonic
| x  Mute note
===============================================================================

Tap to rate this tab
# A B C D E F G H I J K L M N O P Q R S T U V W X Y Z