Song name
# A B C D E F G H I J K L M N O P Q R S T U V W X Y Z

Dave Matthews Band - Kashmir tab

-----------------------------------------------------------------------------
KASHMIR - Dave Matthews and Tim Reynolds Live in Las Vegas 12.12.2009
-----------------------------------------------------------------------------
Tabbed by: simmers33
Email: simmers33@netscape.net
Tim Reynolds' acoustic version of the classic Led Zeppelin song.  These are the main parts.
There is a lot of crazy other stuff Tim does in between these parts but I hope this gets 
started!

Tuning: DADGBD

  part 1 (2x)

D|--------------------------------------------------------------------------|
B|--------------------------------------------------------------------------|
G|----222---333---333---444---444---555---555---777-------------------------|
D|----000---000---000---000---000---000---000---000-------------------------|
A|----555---555---555---555---555---555---555---555-------------------------|
D|--0-----0-----0-----0-----0-----0-----0-----0-----------------------------|

  part 2 (4x)
                      (freestyle)                 (freestyle w/ power chords)
D|-(0)~--------0---0---------------000-0-0--0--0----------------------------|
B|--777-7-10-7-5---5---------------333-3-3--3--5----------------------------|
G|--777-7--7-7-7---7---------------444-4-4--4--7----------------------------|
D|-(0)~-------(0)-0~---------------000-0-0--0--0----(7-6-7-9-7-6-7-4)-------|
A|-(0)~-------(0)-0~---------------000-0-0--0--0----(7-6-7-9-7-6-7-4)-------|
D|-(0)~-------(0)-0~---------------000-0-0--0--0----(7-6-7-9-7-6-7-4)-------|

  part 3 (2x)

D|--12-12-12-12----10-10-10-10----7-7----5-5-5-5----3-3-3-0-----------------|
B|--13-13-13-12----11-11-11-10----8-7----6-6-6-5----4-4-4-3-----------------|
G|--12-12-12-12----10-10-10-10----7-7----5-5-5-5----3-3-3-2-----------------|
D|---0--0--0--0-----0--0--0--0----0-0----0-0-0-0----0-0-0-0----0-3-2-0------|
A|---0--0--0--0-----0--0--0--0----0-0----0-0-0-0----0-0-0-0----0-3-2-0------|
D|---0--0--0--0-----0--0--0--0----0-0----0-0-0-0----0-0-0-0----0-3-2-0------|

                                                           back to part 1
Tap to rate this tab
 
# A B C D E F G H I J K L M N O P Q R S T U V W X Y Z