Song name
# A B C D E F G H I J K L M N O P Q R S T U V W X Y Z

Dave Matthews Band - When The World Ends tab

This is the different parts of the song broken down, you can listen to the song to 
out the order and the strumming pattern.  It's just like Dave plays live...enjoy.

Intro / Verse
E----------------------------------------|
B----------------------------------------|
G----7----6----------------12-----11--9--|
D----------------------------------7--5--|
A----5----4----------------10------------|
E--7-7--5-5--/12--12-12-12-12--10-10--8--|


Chorus
E----------------------------------------|
B----------------------------------------|
G------2-------5------5--5-5-x-5--5-5----|
D------3-------3------3--3-3-x-3--3-3----|
A------3--/4-4-4-------------x-----------|
E--1-1-1----------4-4-4--6-6-x-6--6-6----|

Chorus continued
E----------------------------------------|
B----------------------------------------|
G------2-------5--5-5-5-5----------------|
D------3-------3--3-3-3-3----------------|
A------3--/4-4-4-------------------------|
E--1-1-1----------6-6-6-6----------------|

Chorus continued
E----------------------------------------|
B----------------------------------------|
G------2-------5------5--5-5-x-5--5-5----|
D------3-------3------3--3-3-x-3--3-3----|
A------3--/4-4-4-------------x-----------|
E--1-1-1----------4-4-4--6-6-x-6--6-6----|

Chorus continued
E----------------------------------------|
B----------------------------------------|
G------2-------5--5-5-5-5-5-5-5-5---5----|
D------3-------3--3-3-3-3-3-3-3-3---5----|
A------3--/4-4-4--------------------3----|
E--1-1-1----------6-6-6-6-6-6-6-6--------|

Bridge
E--2-2------x----------------------------|
B--3-3------x-2-2-2-2-2-2-2-2------------| \
G--2-2------x-2-2-2-2-2-2-2-2------------|   x 4
D-------4-5-x-2-2-2-2-2-2-2-2------------| /
A-----------x-0-0-0-0-0-0-0-0------------|
E-------2-3-x----------------------------|

Bridge continued
E--2-2------x-------2--2--x--------------|
B--3-3------x-------3--3--x--------------|
G--2-2------x-------2--2--x-5------------|
D-------4-5-x-2-----------x-5------------|
A-----------x-2-----------x-3------------|
E-------2-3-x-0-----------x--------------|
Tap to rate this tab
 
# A B C D E F G H I J K L M N O P Q R S T U V W X Y Z