Song name
# A B C D E F G H I J K L M N O P Q R S T U V W X Y Z

Dave Mcpherson - Listen To The Music tab

Chords
e|--0--3--3--2--0-(2)---|
B|--0--3--3--3--1--3----|
G|--0--0--0--2--0--4----|
D|--2--0--2--0--2--4----|
A|--2--2--3--0--3--2----|
E|--0--3--0--0----------|
   Em  G     D  C  Bm
        Cadd9


Intro
e|-3-----3----2-----2----0---------|
B|---0----------0----------0-------|
G|-----0----------0----------0-----|
D|-3----------0----------2-----2---|
A|---------------------------------|
E|---------------------------------| x2

     
 Em          G            Cadd9
I could sing to you all night, 
                               Em
I would sing for you all night
           G                    Cadd9
About what went wrong and what felt right
Em                       G
I know that I'm to blame and it feels so strange
           Cadd9                   Em
But where is the good in goodbye?
          G              Cadd9
All I can offer you is my all


G                          D           
'Cause we used to promise, promise to stay
G                   C
And we used to call each other every day
G                     D
And we used to listen to the music

e|-0-0-0-0---0-0-0--|
B|-3-1-0-1---3-1-0--|
G|-0-0-0-0---0-0-0--|
D|-2-2-2-2---2-2-2--|
A|-3-3-3-3---3-3-3--|
E|------------------|


Em           G            Cadd9
I know I'm withering away,
                          Em
I know I'm withering away,
          G                 Cadd9
I know my impatience pushes you away
Em                          G     
I know everything that I do wrong,
                          Cadd9                             
I'll tell the world in this little song of mine
Em               G             Cadd9
I wouldn't know quite how to move on


G                        D
I know I sound hopeless, I sound like a fool
G                         C
But when you're around me, I lose my cool
G                     D
I know I'm too honest in my music

e|-0-0-0-0---0-0-0--|
B|-3-1-0-1---3-1-0--|
G|-0-0-0-0---0-0-0--|
D|-2-2-2-2---2-2-2--|
A|-3-3-3-3---3-3-3--|
E|------------------|

G                       D
You know that I'm ready, I wasn't before
G                        C
And you will forget me but I'm still yours
G                  D
Do you still listen to my music?

e|-0-0-0-0---0-0-0--|
B|-3-1-0-1---3-1-0--|
G|-0-0-0-0---0-0-0--|
D|-2-2-2-2---2-2-2--|
A|-3-3-3-3---3-3-3--|
E|------------------|

D              G              Cadd9
I now pronounce you man and music
D                           G                      Cadd9
You might not get the girl, but here's a guitar, go use it
D                             G                      Cadd9
And I really, really, really, really hate that stupid Cupid
                     Em                          Bm
You pulled back your bow and you got me in my heart,
   C                                             *
My messed up, bloody heart, and I'll always know where I belong

*Dont know the name of the chord, but it is this;
e|-0-|
B|-3-|
G|-0-|
D|-4-|
A|-5-|
E|-0-|


G                   D
We used to make fire and we used to fight
G                         C
We used to hold each other every night
G                  D            
And we used to dissect all my music

e|-0-0-0-0---0-0-0--|
B|-3-1-0-1---3-1-0--|
G|-0-0-0-0---0-0-0--|
D|-2-2-2-2---2-2-2--|
A|-3-3-3-3---3-3-3--|
E|------------------|

G                              D                      g
And don't shut the door on us, we won't close the book
                                 C
We walk away from each other but I don't know where else to look
G                      D
Are we still listening to the music?

e|-0-0-0-0---0-0-0--|
B|-3-1-0-1---3-1-0--|
G|-0-0-0-0---0-0-0--|
D|-2-2-2-2---2-2-2--|
A|-3-3-3-3---3-3-3--|
E|------------------|




D                      G
I now pronounce you man and music
Cadd9
I promise that all this hardship will be worth it

Outro
e|-3-----3----2-----2----0---------|
B|---0----------0----------0-------|
G|-----0----------0----------0-----|
D|-3----------0----------2-----2---|
A|---------------------------------|
E|---------------------------------|

e|-3-----3----2-----2----0-------------|
B|---0----------0----------0-----------|
G|-----0----------0----------0---------|
D|-3----------0----------2-----2-2/4-0-|
A|-------------------------------------|
E|-------------------------------------|
Tap to rate this tab
 
# A B C D E F G H I J K L M N O P Q R S T U V W X Y Z