Song name
# A B C D E F G H I J K L M N O P Q R S T U V W X Y Z

Dave Sharman - Just What I Needed tab

Dave Sharman
Wave album

Legend:
b = bend (not full bends, but vibrating bends)
h = hammer on
p = pulloff
/ = slide

This is the main guitar in the song, it goes pretty much throughout the entire thing. 
pretty good I would say,
Part A
E|------------------------------------------||
B|----------9-----------12-----------14--16b||
G|----9--------11b----------13b-------------||
D|-------9----------13-----------14---------||
A|------------------------------------------||
E|------------------------------------------||
Part B
E|------------------------------------------||
B|----------9-----------12------------------||
G|----9--------11b----------13b--13---------||
D|-------9----------13---------------14-----||
A|---------------------------------------14-||
E|------------------------------------------||

Simple as that, you play part A, then you play part b. You keep doing that with some 
distortionand you got it.
Tap to rate this tab
# A B C D E F G H I J K L M N O P Q R S T U V W X Y Z