Guitaretab - guitar tabs
Song name
# A B C D E F G H I J K L M N O P Q R S T U V W X Y Z

Davey Langit - Selfie Song tab

Davey Langit - Selfie Song (TABBED BY RENZO)


TUNING: EADGBe





LEAD:

e--5/7--5--3--5/7-----5/7--5--3--5/7--5/7--5--3-----3--3-----3--3/5-----|
B------------------5-----------------------------3--------3-------------|
G-----------------------------------------------------------------------|   2X
D-----------------------------------------------------------------------|
A-----------------------------------------------------------------------|
E-----------------------------------------------------------------------|

e--5/7--5--3--5/7-----5/7--5--3--5/7--5/7--5--3-----3-------------------|
B------------------5-----------------------------3-----3--3/5--3--------|
G-----------------------------------------------------------------2--0--|
D-----------------------------------------------------------------------|
A-----------------------------------------------------------------------|
E-----------------------------------------------------------------------|






INTRO/VERSE: D/G, A7, D/C, D/G

e----------------------------------------------------------------------------|
B-----3--T--------3--T--3-----2--T--------2--T--2-----3--T--------3--T--3----|
G-----2--A--2-----2--A--2-----0--A--0-----0--A--0-----2--A--2-----2--A--2----|
D--------P--0--------P-----------P--2--------P-----------P--0--------P-------|
A--------------------------0-----------0-----------3-----------3-------------|
E--3-----------3-------------------------------------------------------------|


e---------------------------|
B-----3--T--------3--T--3---|
G-----2--A--2-----2--A--2---|  4X
D--------P--0--------P------|
A---------------------------|
E--3-----------3------------|







REFRAIN: AM7, C/D, BM7, E7, AM7(+G), C/D(B+), D(aug)


e----------------------------------------------------------------------------|
B-----1--T---------1--T--1-----5--T--------5--T--5-----3--T--------3--T--3---|
G-----0--A--0------0--A--0-----5--A--5-----5--A--5-----2--A--2-----2--A--2---|
D--------P--1---------P-----------P--5--------P-----------P--4--------P------|
A--0-----------0-----------5-----------5-----------2-----------2-------------|
E----------------------------------------------------------------------------|


e-----------------------------4-----------4-----------4-----------4----------|
B-----O--T--------0--T--0-----1--T--1-----1--T--1-----1--T--1-----1--T--1----|
G-----1--A--1-----1--A--1--------A--0--------A--0--------A--0--------A--0----|
D--------P--0--------P-----------P-----------P-----------P-----------P-------|
A--2-----------2-----------0-----------0-----------0-----------0-------------|
E----------------------------------------------------------------------------|


Sabay caption ng "Magandang umaga diyan.".................

e--6/7--5--------------|
B---------5------11----|
G-----------5----11----|  NOTE: PLAY THIS AFTER FIRST PART
D-------------5--------|
A--4/5-----------------|
E----------------10----|


Kung ito nga ang iyong trip
Sige lang baby click ka lang ng click.......
[ Tab from: http://www.guitaretab.com/d/davey-langit/376463.html ]
e-----4-----------4-----------4-----------4---------------------5------------|
B-----1--T--1-----1--T--1-----1--T--1-----1--T--1-----5--T--5---5------------|
G--------A--0--------A--0--------A--0--------A--0-----5--A--5---5--STRUM 5X--|
D--------P-----------P-----------P-----------P-----------P------5------------|
A--0-----------0-----------0-----------0-----------5------------5------------|
E----------------------------------------------------------------------------|







CHORUS: CM7,Cm7, Bm7, Dm7, G(aug), E7, Am7, C/D

e----------------------------------------------------------------------------|
B-----5--T--------5--T--5-----4--T--------4--T--4-----3--T--------3--T--3----|
G-----4--A--4-----4--A--4-----3--A--3-----3--A--3-----2--A--2-----2--A--2----|
D--------P--5--------P-----------P--5--------P-----------P--4--------P-------|
A--3-----------3-----------3-----------3-----------2-----------2-------------|
E----------------------------------------------------------------------------|


e----------------------------------------------------------------------------|
B-----6--T--4-----5--T--------5--T--5-----4--T--------4--T--4----------------|
G-----5--A--4-----4--A--4-----4--A--4-----3--A--3-----3--A--3----------------|
D--------P-----------P--5--------P-----------P--5--------P-------------------|
A--5--------3--3-----------3-----------3-----------3-------------------------|
E----------------------------------------------------------------------------|


e----------------------------------------------------------------------------|
B-----3--T--------3--T--3-----0--T--------T------0--T--0--7--5--T------------|
G-----2--A--2-----2--A--2-----1--A-----1--A------1--A--1--5--5--A------------|
D--------P--4--------P-----------P-----0--P---------P-----------P------------|
A--2-----------2-----------2--------2---------0-----------5------------------|
E----------------------------------------------------------------------------|







BRIDGE:

NOTE: START STRUMMING AT THIS PART


G       Bm                      C9                   Am         D       G
        Di mo kailangan ang approval ng iba upang malaman mong ika'y maganda

 Bm                  C9                 Am
Ang mahalaga ay komportable ka sa kung anong meron ka

                         D
Ang ganda mo ay nagiisa


Kaya't sige lang







2ND CHORUS:

NOTE: USE PALM MUTE

CM7                              Cm7
Mag-selfie selfie selfie selfie tayo 'pag may time

  Bm7                   Dm7       G(aug)
Ipakita sa mundo ang maganda mong smile

CM7                         Cm7
Selfie selfie selfie selfie tayo 'pag may time

Bm7                     Dm7           G(aug)
Ang pagiging maganda't pogi it aint a crime



THEN BACK TO CHORUS..............

NOTE: USE THE PLUCKING PART






OUTRO:

Selfie selfie din 'pag may time (PART).....................

e----------------------------------------------------------------------------|
B-----1--T--------5--T-------3--T-----0--T-----------------------------------|
G-----0--A--0-----5--A--5----2--A-----1--A-----------------------------------|
D--------P--2--------P--5-------P--------P-----------------------------------|
A--0-----------5-----------2-------2-----------------------------------------|
E----------------------------------------------------------------------------|

e----------------------------------------------------------------------------|
B-----1--T--------5--T-------3--T--0--T-----0--T--0--7--5--T-----------------|
G-----0--A--0-----5--A--5----2--A--1--A-----1--A--1--5--5--A-----------------|
D--------P--2--------P--5-------P-----P--------P-----------P-----------------|
A--0-----------5-----------2-------2-----0-----------5-----------------------|
E----------------------------------------------------------------------------|

THEN BACK TO INTRO....

END :)

GOODLUCK EVERYONE.. GODBLESS YOU ALL.. :))
Selfie Song chords by Davey Langit