Song name
# A B C D E F G H I J K L M N O P Q R S T U V W X Y Z

David Allan Coe - The Ride tab

e---------------------------------------------|
B---------------------------------------------|
G-3-5b-5-3-8-10b-10-8-7b-5-----5-7b-5-----5---|
D--------------------------5-8--------5-8-----|
A---------------------------------------------|
E---------------------------------------------|

e---------------------------------------------|
B---------------------------------------------|
G-3-5b-5-3-8-10b-10-8---------8---------------|
D---------------------10-8h10---10------------|
A---------------------------------------------|
E---------------------------------------------|
Tap to rate this tab
 
# A B C D E F G H I J K L M N O P Q R S T U V W X Y Z