Song name
# A B C D E F G H I J K L M N O P Q R S T U V W X Y Z

David Bowie - Rebel Rebel tab

INTRO:

-------------------------------|
----5--3----5--5-----2--0------|
---------6--4--4----------1----| repeat
--0---------------2---------2--|
-------------------------------|
-------------------------------|


VERSE1:

-------------------------------|
----5--3----5--5-----2--0------|
---------6--4--4----------1----| repeat
--0---------------2---------2--|
-------------------------------|
-------------------------------|


BRIDGE:

  A   D  Bm   E
--0---2---2---0---|
--2---3---3---0---|
--2---2---4---1---|
--2---2---4---2---|
--0-------2---2---|
--------------0---|


CHORUS:

-------------------------------|
----5--3----5--5-----2--0------|
---------6--4--4----------1----| repeat
--0---------------2---------2--|
-------------------------------|
-------------------------------|

  D   E
--2---0--------|
--3---0--------|
--2---1--------|
--0---2--------|
------2--------|
------0---3b4--|


VERSE2:

-------------------------------|
----5--3----5--5-----2--0------|
---------6--4--4----------1----| repeat
--0---------------2---------2--|
-------------------------------|
-------------------------------|


BRIDGE:

  A   D  Bm   E
--0---2---2---0---|
--2---3---3---0---|
--2---2---4---1---|
--2---2---4---2---|
--0-------2---2---|
--------------0---|


CHORUS:

-------------------------------|
----5--3----5--5-----2--0------|
---------6--4--4----------1----| repeat
--0---------------2---------2--|
-------------------------------|
-------------------------------|

  D   E
--2---0--------|
--3---0--------|
--2---1--------|
--0---2--------|
------2--------|
------0---3b4--|


RIFF:

-------------------------------|
----5--3----5--5-----2--0------|
---------6--4--4----------1----| repeat
--0---------------2---------2--|
-------------------------------|
-------------------------------|


CHORUS:

-------------------------------|
----5--3----5--5-----2--0------|
---------6--4--4----------1----| repeat
--0---------------2---------2--|
-------------------------------|
-------------------------------|

  D   E
--2---0--------|
--3---0--------|
--2---1--------|
--0---2--------|
------2--------|
------0---3b4--|


ENDING:

-------------------------------|
----5--3----5--5-----2--0------|
---------6--4--4----------1----| repeat
--0---------------2---------2--|
-------------------------------|
-------------------------------|

----------------------------------|
----5--3----5--5-----2--0---------|
---------6--4--4----------1-------|
--0---------------2---------2--0--|
----------------------------------|
----------------------------------|
Tap to rate this tab
# A B C D E F G H I J K L M N O P Q R S T U V W X Y Z