Song name
# A B C D E F G H I J K L M N O P Q R S T U V W X Y Z

David Crowder Band - Obsession tab

Title: Obsession
Album: Can You Hear Us?
Artist: David Crowder Band


No offense to the others who wrote tabs for this song, but they're all
incorrect. Here's how it really is.

There are three tunings for these songs:

D/G/D/G/A/D (This is a very versatile tuning, used for many songs)
Eb/Ab/Db/Gb/Bb/Eb (This is just a half-step down, easier for worship)
Eb/Ab/Eb/Eb/Bb/Eb (David Crowder's tuning on his site)

Eb/Ab/Eb/Eb/Bb/Eb or D/G/D/G/A/D (for D/G/D/G/A/D it's CAPO 1):

Intro 1:
  Cm          Bb      Ab
|---4h5p4p0-----0h2-2---0----------------|
|--0-------0---------------4-4/5-5/7-7-0-|
|----------------------------------------|
|----------------------------------------|
|-4-----------2-------0------------------|
|----------------------------------------|

Intro 2:
  Cm          Bb      Ab
|---4h5p4p0-----0h2-2---0----------------|
|--0-------0---------------4-4h5p4-2p0---|
|----------------------------------------|
|----------------------------------------|
|-4-----------2-------0------------------|
|----------------------------------------|

The intro is basically Intro 1/Intro 2/Intro 1.

Verse:
  Cm          Bb      Ab
|---4h5p4p0-----0-------0---------------|
|--0-------0----0-------0---------------|
|---------------0-------0---------------|
|---------------------------------------|
|-4-----------2-------0-----0/2--2/4--4-|
|---------------------------------------|

Chorus:
    Ab  Bb  Eb/G
|---0---0---0---|
|---0---0---0---|
|---0---0---2---|
|---0---2---0---|
|---0---2---2---|
|-----------4---|

Eb/Ab/Db/Gb/Bb/Eb:

All the rest is the same except this.

Verse:
  Cm          Bb      Ab
|---4h5p4p0-----0-------0-------|
|--0-------0----0-------0-------|
|---------------2-------2-------|
|-------------------------------|
|-4-----------2-------0---------|
|-------------------------------|

Chorus:

Chorus:
    Ab  Bb  Eb/G
|---0---0---0---|
|---0---0---0---|
|---2---4---2---|
|---2---4---2---|
|---0---2---2---|
|-----------4---|

Sorry, this is the first complicated tab I've ever done.
E-mail me questions/comments (not too much though, or I will be mad).

Have fun playing, and God bless.
Tap to rate this tab
# A B C D E F G H I J K L M N O P Q R S T U V W X Y Z