Song name
# A B C D E F G H I J K L M N O P Q R S T U V W X Y Z

David Crowder Band - Rain Down tab

Help us improve GuitareTab! Take a short survey!
Rain Down
David Crowder Band

I can't tell by listening to the CD whether or not Dave's playing this
in standard tuning or his funky EAEEBE tuning, but rather than break some
strings, I just tabbed it in standard:

Intro & Verse:

(it's a little more rhythmic than this, but listen to the CD to figure it out)
E|---------------------------------------------------------|
B|---------------------------------------------------------|
G|-----------9----9--9--------9p7--7--7----------------0---|
D|-----------9----9--9--------7----7--7-------------5--5---|
A|----9h10---9----9--9--------9----9--9---------7---7--7---|
E|----0------0----0--0-----0---------------7h8--8---8--8---|

E|---------------------------|r
B|---------------------------|e
G|---------------0-0---0-0---|p
D|---9p7--7------5-5---5-5---|e
A|---7----7------7-7---7-7---|a
E|---7----7---8--8-8---8-8---|t

And then, the electric guitar kicks in with this:

(with flanger effect)
E|-----------------------------------------------------|
B|-----------------------------------------------------|
G|---7/9--9-9-9---7-7-7--9-9-9-----5/7--7-7-7--5-5-5---|
D|---7/9--9-9-9---7-7-7--9-9-9-----5/7--7-7-7--5-5-5---|
A|---5/7--7-7-7---5-5-5--7-7-7-----3/5--5-5-5--3-3-3---|
E|-----------------------------------------------------|

E|------------------3--------2----------|r
B|----------------------3--------3------|e
G|---5--5--5----------------------------|p
D|---5--5--5----------------------------|e
A|---3--3--3----------------------------|a
E|--------------------------------------|t

Chorus:

E|---3------2--------3------|r
B|---3------3--------3------|e
G|---0------2--------0------|p
D|---0------0--------2------|e
A|---2------0--------3------|a
E|---3----------------------|t
Related for Rain Down tab