Song name
# A B C D E F G H I J K L M N O P Q R S T U V W X Y Z

David Essex - Rock On tab

http://www.davidessex.com/

G|-6-6-----5h6-6--------------------|-------------|
D|----------------------------------|-------------|
A|-----4-4---------4-0-4-4----------|-------------|
E|----------------------------------|-------------|
B|--------------------------0-0-2-2-|-0-2-2-0-2-2-|

G|------4-----6-|
D|-4-6---6-6----|
A|--------------|
E|--------------|
B|--------------|

G|---------|
D|---------|
A|-4~~4~4~-|
E|---------|
B|---------|

G|-------|
D|-6-4-2-|
A|-------|
E|-------|
B|-------|

G|--------------------|
D|--------------------|
A|-3b4-3b4-3b4--------|
E|--------------------|
B|--------------------|

G|------------4h6-|
D|-6-6---4-4------|
A|-----4----------|
E|----------------|
B|----------------|

G|-6-6------5h6-6----------------------------------|
D|-------------------------------------------------|
A|------4-4---------4-0-4-4------------2h4-2h4-10\-|
E|-------------------------------------------------|
B|-----------------------------0-0-2-2-------------|
Tap to rate this tab
# A B C D E F G H I J K L M N O P Q R S T U V W X Y Z