Song name
# A B C D E F G H I J K L M N O P Q R S T U V W X Y Z

David Francey - Fourth Of July chords

Highlighted       Show chord diagrams
Fourth of July
David Francy
Capo 3

Tab & Chord

e|--12--14--16--17--14--16--12--9--7--9--12--14--12-|
B|--------------------------------------------------|
G|--------------------------------------------------|
D|--------------------------------------------------|
A|--------------------------------------------------|
E|--------------------------------------------------|


    E             B               A
I returned to the States one year After
    A        B             E
The towers Returned to the Earth
            E            B                  A
And they're Saber's were Drawn from they're Scabbards
          A            B             E
They were Rattling for All they were Worth
      B                       A
And I Understand how this can Happen
       B                  A
I dont Need to ask anyone Why
        E            B             A
It's September and I Cant help but Think that
A              B         E
Looks like the Fourth of July


e|--12--14--16--17--14--16--12--9--7--9--12--14--12-|
B|--------------------------------------------------|
G|--------------------------------------------------|
D|--------------------------------------------------|
A|--------------------------------------------------|
E|--------------------------------------------------|

E           B              A
Down on the Shores of lake Erie
     A         B       E
They See the Political Slant
       E               B         A
The Pursuit of they're Happiness Promised
       A             B       E
By the Stacks of the Nuclear Plant
            B                     A
Now there's Flags flying on every Lampost
B                              A
Red white and blue 'gainst the Sky
        E            B             A
It's September and I Cant help but Think that
A              B         E
Looks like the Fourth of July


e|--12--14--16--17--14--16--12--9--7--9--12--14--12-|
B|--------------------------------------------------|
G|--------------------------------------------------|
D|--------------------------------------------------|
A|--------------------------------------------------|
E|--------------------------------------------------|

         E           B          A
It's the Powers that Be pay the Piper
         A           B           E
It's the Powers that Be call the Tune
          E         B          A
They want All of us Up for the Dancing
    A        B          E
All Howling Away at the Moon
       B                         A
But my Ears to the ground and im Listning
       B                    A
I keep Watch with a weather Eye
        E            B             A
It's September and i Cant help but Think that
A              B         E
Looks like the Fourth of July


e|--12--14--16--17--14--16--12--9--7--9--12--14--12-|
B|--------------------------------------------------|
G|--------------------------------------------------|
D|--------------------------------------------------|
A|--------------------------------------------------|
E|--------------------------------------------------|
Tap to rate this tab
 
# A B C D E F G H I J K L M N O P Q R S T U V W X Y Z