Song name
# A B C D E F G H I J K L M N O P Q R S T U V W X Y Z

David Gilmour - Take A Breath tab

                 --Take A Breath by The Jonas Brothers--
                     --Tabbed by aBoVeAvErAgE x3--

This song is in 4/4 time so count 1,2,3,4,1,2,3,4,1,2,3,4 etc.

KEY:

. = palm mute

Verse 1 - Don't Play Until The Drums Come In.

E----------------------------------------]
B----------------------------------------]
G----------------------------------------]
D---7-7-7-7-7-7-7-7-7-7-7-7-7-7-7-7------]
A---7-7-7-7-7-7-7-7-7-7-7-7-7-7-7-7------]
E---5-5-5-5-5-5-5-5-5-5-5-5-5-5-5-5------]
    . . . . . . . . . . . . . . . .      ]
E----------------------------------------]
B----------------------------------------]
G----------------------------------------]
D---3-3-3-3-3-3-3-3-3-3-3-3-3-3-3-3------]
A---3-3-3-3-3-3-3-3-3-3-3-3-3-3-3-3------]
E---1-1-1-1-1-1-1-1-1-1-1-1-1-1-1-1------]
    . . . . . . . . . . . . . . . .      ]
E----------------------------------------]
B----------------------------------------]
G---7-7-7-7-7-7-7-7-7-7-7-7-7-7-7-7------]
D---7-7-7-7-7-7-7-7-7-7-7-7-7-7-7-7------]
A---5-5-5-5-5-5-5-5-5-5-5-5-5-5-5-5------]
E----------------------------------------]
    . . . . . . . . . . . . . . . .
Pre-Chorus

E----------------------------------------]
B----------------------------------------]
G----------------------------------------]
D---5-5-5-5-5-5-5-5-5-5-5-5-5-5-5-5------]
A---5-5-5-5-5-5-5-5-5-5-5-5-5-5-5-5------]
E---3-3-3-3-3-3-3-3-3-3-3-3-3-3-3-3------]
                                         ]
E----------------------------------------]
B----------------------------------------]
G----------------------------------------]
D---3-3-3-3-3-3-3-3-3-3-3-3-3-3-3-3------]
A---3-3-3-3-3-3-3-3-3-3-3-3-3-3-3-3------]
E---1-1-1-1-1-1-1-1-1-1-1-1-1-1-1-1------]
                                         ]
E----------------------------------------]
B----------------------------------------]
G---3-3-3-3-3-3-3-3-3-3-3-3-3-3-3-3------]
D---3-3-3-3-3-3-3-3-3-3-3-3-3-3-3-3------]
A---1-1-1-1-1-1-1-1-1-1-1-1-1-1-1-1------]
E----------------------------------------]


Chorus x2

E----------------------------------------]
B----------------------------------------]
G---5-5-5-5-5-5-5-5-5-5-5-5-5-5-5-5------]
D---5-5-5-5-5-5-5-5-5-5-5-5-5-5-5-5------]
A---3-3-3-3-3-3-3-3-3-3-3-3-3-3-3-3------]
E----------------------------------------]
                                         ]
E----------------------------------------]
B----------------------------------------]
G----------------------------------------]
D---5-5-5-5-5-5-5-5-5-5-5-5-5-5-5-5------]
A---5-5-5-5-5-5-5-5-5-5-5-5-5-5-5-5------]
E---3-3-3-3-3-3-3-3-3-3-3-3-3-3-3-3------]
                                         ]
E----------------------------------------]
B----------------------------------------]
G----------------------------------------]
D---7-7-7-7-7-7-7-7-7-7-7-7-7-7-7-7------]
A---7-7-7-7-7-7-7-7-7-7-7-7-7-7-7-7------]
E---5-5-5-5-5-5-5-5-5-5-5-5-5-5-5-5------]
                                         ]
E----------------------------------------]
B----------------------------------------]
G----------------------------------------]
D---3-3-3-3-3-3-3-3-3-3-3-3-3-3-3-3------]
A---3-3-3-3-3-3-3-3-3-3-3-3-3-3-3-3------]
E---1-1-1-1-1-1-1-1-1-1-1-1-1-1-1-1------]

Verse 2 x2

E----------------------------------------]
B----------------------------------------]
G----------------------------------------]
D---7-7-7-7-7-7-7-7-7-7-7-7-7-7-7-7------]
A---7-7-7-7-7-7-7-7-7-7-7-7-7-7-7-7------]
E---5-5-5-5-5-5-5-5-5-5-5-5-5-5-5-5------]
    . . . . . . . . . . . . . . . .      ]
E----------------------------------------]
B----------------------------------------]
G----------------------------------------]
D---3-3-3-3-3-3-3-3-3-3-3-3-3-3-3-3------]
A---3-3-3-3-3-3-3-3-3-3-3-3-3-3-3-3------]
E---1-1-1-1-1-1-1-1-1-1-1-1-1-1-1-1------]
    . . . . . . . . . . . . . . . .      ]
E----------------------------------------]
B----------------------------------------]
G---7-7-7-7-7-7-7-7-7-7-7-7-7-7-7-7------]
D---7-7-7-7-7-7-7-7-7-7-7-7-7-7-7-7------]
A---5-5-5-5-5-5-5-5-5-5-5-5-5-5-5-5------]
E----------------------------------------]
    . . . . . . . . . . . . . . . .

Pre-Chorus 2

E----------------------------------------]
B----------------------------------------]
G----------------------------------------]
D---5-5-5-5-5-5-5-5-5-5-5-5-5-5-5-5------]
A---5-5-5-5-5-5-5-5-5-5-5-5-5-5-5-5------]
E---3-3-3-3-3-3-3-3-3-3-3-3-3-3-3-3------]
                                         ]
E----------------------------------------]
B----------------------------------------]
G----------------------------------------]
D---3-3-3-3-3-3-3-3-3-3-3-3-3-3-3-3------]
A---3-3-3-3-3-3-3-3-3-3-3-3-3-3-3-3------]
E---1-1-1-1-1-1-1-1-1-1-1-1-1-1-1-1------]
                                         ]
E----------------------------------------]
B----------------------------------------]
G---3-3-3-3-3-3-3-3-3-3-3-3-3-3-3-3------]
D---3-3-3-3-3-3-3-3-3-3-3-3-3-3-3-3------]
A---1-1-1-1-1-1-1-1-1-1-1-1-1-1-1-1------]
E----------------------------------------]

Chorus 2 x2

E----------------------------------------]
B----------------------------------------]
G---5-5-5-5-5-5-5-5-5-5-5-5-5-5-5-5------]
D---5-5-5-5-5-5-5-5-5-5-5-5-5-5-5-5------]
A---3-3-3-3-3-3-3-3-3-3-3-3-3-3-3-3------]
E----------------------------------------]
                                         ]
E----------------------------------------]
B----------------------------------------]
G----------------------------------------]
D---5-5-5-5-5-5-5-5-5-5-5-5-5-5-5-5------]
A---5-5-5-5-5-5-5-5-5-5-5-5-5-5-5-5------]
E---3-3-3-3-3-3-3-3-3-3-3-3-3-3-3-3------]
                                         ]
E----------------------------------------]
B----------------------------------------]
G----------------------------------------]
D---7-7-7-7-7-7-7-7-7-7-7-7-7-7-7-7------]
A---7-7-7-7-7-7-7-7-7-7-7-7-7-7-7-7------]
E---5-5-5-5-5-5-5-5-5-5-5-5-5-5-5-5------]
                                         ]
E----------------------------------------]
B----------------------------------------]
G----------------------------------------]
D---3-3-3-3-3-3-3-3-3-3-3-3-3-3-3-3------]
A---3-3-3-3-3-3-3-3-3-3-3-3-3-3-3-3------]
E---1-1-1-1-1-1-1-1-1-1-1-1-1-1-1-1------]

Bridge

E----------------------------------------]
B---------------------------5------------]
G-----------5---------------5------------]
D---7----3--5-------7----3--3------------]
A---7----3--3-------7----3---------------]
E---5----1----------5----1---------------]
                /\
These notes are played at a certain time, play each once and let them ring. If you 
to the song you can hear when to play them.

These notes are played as you played the chorus before except it's palm muted.
                \/
E----------------------------------------]
B----------------------------------------]
G---5-5-5-5-5-5-5-5-5-5-5-5-5-5-5-5------]
D---5-5-5-5-5-5-5-5-5-5-5-5-5-5-5-5------]
A---3-3-3-3-3-3-3-3-3-3-3-3-3-3-3-3------]
E----------------------------------------]
    . . . . . . . . . . . . . . . .      ]
E----------------------------------------]
B----------------------------------------]
G----------------------------------------]
D---5-5-5-5-5-5-5-5-5-5-5-5-5-5-5-5------]
A---5-5-5-5-5-5-5-5-5-5-5-5-5-5-5-5------]
E---3-3-3-3-3-3-3-3-3-3-3-3-3-3-3-3------]
    . . . . . . . . . . . . . . . .      ]
E----------------------------------------]
B----------------------------------------]
G----------------------------------------]
D---7-7-7-7-7-7-7-7-7-7-7-7-7-7-7-7------]
A---7-7-7-7-7-7-7-7-7-7-7-7-7-7-7-7------]
E---5-5-5-5-5-5-5-5-5-5-5-5-5-5-5-5------]
    . . . . . . . . . . . . . . . .      ]
E----------------------------------------]
B----------------------------------------]
G----------------------------------------]
D---3-3-3-3-3-3-3-3-3-3-3-3-3-3-3-3------]
A---3-3-3-3-3-3-3-3-3-3-3-3-3-3-3-3------]
E---1-1-1-1-1-1-1-1-1-1-1-1-1-1-1-1------]
    . . . . . . . . . . . . . . . .

Chorus x4 or keep repeating until the songs fades out.

E----------------------------------------]
B----------------------------------------]
G---5-5-5-5-5-5-5-5-5-5-5-5-5-5-5-5------]
D---5-5-5-5-5-5-5-5-5-5-5-5-5-5-5-5------]
A---3-3-3-3-3-3-3-3-3-3-3-3-3-3-3-3------]
E----------------------------------------]
                                         ]
E----------------------------------------]
B----------------------------------------]
G----------------------------------------]
D---5-5-5-5-5-5-5-5-5-5-5-5-5-5-5-5------]
A---5-5-5-5-5-5-5-5-5-5-5-5-5-5-5-5------]
E---3-3-3-3-3-3-3-3-3-3-3-3-3-3-3-3------]
                                         ]
E----------------------------------------]
B----------------------------------------]
G----------------------------------------]
D---7-7-7-7-7-7-7-7-7-7-7-7-7-7-7-7------]
A---7-7-7-7-7-7-7-7-7-7-7-7-7-7-7-7------]
E---5-5-5-5-5-5-5-5-5-5-5-5-5-5-5-5------]
                                         ]
E----------------------------------------]
B----------------------------------------]
G----------------------------------------]
D---3-3-3-3-3-3-3-3-3-3-3-3-3-3-3-3------]
A---3-3-3-3-3-3-3-3-3-3-3-3-3-3-3-3------]
E---1-1-1-1-1-1-1-1-1-1-1-1-1-1-1-1------]

Well that's pretty much it. Hope this helps.
Enjoy!!
Tap to rate this tab
# A B C D E F G H I J K L M N O P Q R S T U V W X Y Z