Song name
# A B C D E F G H I J K L M N O P Q R S T U V W X Y Z

David Gray - Lately tab

-------------------------------------------------------------------------------
			     LATELY - David Gray
-------------------------------------------------------------------------------
Tabbed by:  T Lamb
Email:  thephatbassist@hotmail.com

It has 3 1/2 beats per measure.

(1 and 2 and 3 and 4 1 and 2 and 3 and 4 1...etc.)

  1   2   3   4 |1   2   3   4 |1   2   3   4 |1   2   3   4 |
E|--------------|--------------|--------------|--------------|
A|--------------|--------------|--------------|--------------|
D|3-------------|0-------------|3-------------|0-------------|
G|--2---2-------|--2---2-----0-|--2---2-------|--2---2-----0-|
B|----1---3-1-3-|----1---3-1---|----1---3-1-3-|----1---3-1---|
e|----1---------|----1---------|----1---------|----1---------|

Just before the chorus hold the G to get into 4/4.
So:

  1   2   3   4 |1   2   3   4 |1   2   3   4 |1   2   3   4   |
E|--------------|--------------|--------------|----------------|
A|--------------|--------------|--------------|----------------|
D|3-------------|0-------------|3-------------|0---------------|
G|--2---2-------|--2---2-----0-|--2---2-------|--2---2-----0---|
B|----1---3-1-3-|----1---3-1---|----1---3-1-3-|----1---3-1-----|
e|----1---------|----1---------|----1---------|----1-----------|

4/4 section:

C
Someone tell me where did it go 
Bb          Dm
Darling I'm damned if I know 
C                        Dm    Bb
I seen that look in your eye 
C
No-one ever gave it a chance 
Bb                   Dm
I could have said in advance 
C                   Bb
You saw it all at a glance 

And goodbye


Tap to rate this tab
 
# A B C D E F G H I J K L M N O P Q R S T U V W X Y Z