Song name
# A B C D E F G H I J K L M N O P Q R S T U V W X Y Z

David Soul - Dont Give Up On Us tab

Song title : Don’t give up on us
Sung by : Papa Piolo
Tabbed by : Ralph Nacisvalencia (yap2die4@yahoo.com) (09182777621)

Legend: 
s – slide
sd- slide down
h - hammer
x - tap

yung intro part 2 guitars yata but I played it as one.. 
quite confusing but really understandable as you play it repeatedly..
feel free to give suggestions and comments..peepz, para sa mga acoustic lovers!!
Dedicated to Ms. Kristie Ong..

tuning: standard

Intro:

e-----------------------5s7--|--4------4---------|--------------7-4---|
B------5--7------7-----------|-------5--------7--|--5----5---5--------|
G-6s7----------7-------------|-----4--------4----|-----6---5----------|
D------------7-------7-------|-------------------|--------------------|
A---------5--------5---------|--5---------5------|--4-----------------|
E----------------------------|-------------------|--------------------|

e--5------2---0--|--3------2-------------|--5---4---------------------|
B-------3---3----|-------3---------3-----|------5---------------------|
G-----4----------|-----4---------4-------|--6---4---------------------|
D----------------|-----------------------|----------------------------|
A--2-------------|--2----------2---------|----------------------------|
E----------------|-----------------------|----------------------------|

Verse 1 :

e----------------|---------4--|------------------4--------4-----------|
B----------------|-------4----|-----5-------------------5-------------|
G—-6h7--6----6---|-----4------|--6----7-6-4----4------4---------------|
D----------------|------------|--------------4------------------------|
A--5------7------|------------|--5--------5---------5-----------------|
E----------------|--4---------|---------------------------------------|

e--------4-------|---------2-------|----------------------------------|
B------5----5sd--|-------2------2--|--------7-------------------------|
G----6-----------|-----3------3----|------7--------7------------------|
D--6-------------|-----------------|----7--------7--------------------|
A----------------|-----------------|--5--------5----------------------|
E----------------|--2--------------|----------------------------------|

e----------7--4------|------------------|----------7--4---------------|
B-------5-------5----|--------7---------|-------5---------------------|
G-----------------4--|------7--------7--|-----------------------------|
D----6---------------|----7--------7----|----6------------------------|
A--4-----------------|--5--------5------|--4--------------------------|
E--------------------|------------------|-----------------------------|


e---------5----|--5--4------------------------------------------------|
B--------------|-----5------------------------------------------------|
G----5h6-------|--6--4------------------------------------------------|
D--------------|------------------------------------------------------|
A--------------|------------------------------------------------------|
E--7-----------|------------------------------------------------------|

Verse 2 :

e----------------|--------4---------4--|------------------------------|
B-------------5--|------4---------4----|-----5------------------------|
G—-6h7--6-----6--|----4---------4------|--6-----7--6--4---------------|
D----------------|---------------------|------------------------------|
A--5-------7-----|---------------------|--5-----------5---------------|
E----------------|--4---------4--------|------------------------------|

e----------------4--------------|--------4--------4-------------------|
B-----7--------5------------5---|------5--------5---------------------|
G--4----4----4----------4-------|----6--------6-----------------------|
D-------------------------------|--6--------6-------------------------|
A---------5----------5----------|-------------------------------------|
E-------------------------------|-------------------------------------|

e--------2----------|------------------|--------7--4------------------|
B------2------2--3--|--------7---------|------5------5----------------|
G----3------2----2--|------7--------7--|---------------4--------------|
D-------------------|----7--------7----|----6-------------------------|
A-------------------|--5--------5------|--4---------------------------|
E--2----------------|------------------|------------------------------|

e------------------|--------x-------|----------------|----------------|
B--------7-------7-|-----7--x--6----|---3-----2------|----------------|
G------7---------7-|-----6--x--6----|----------------|---2---1--------|
D----7--------7----|--------x-------|----------------|---2---2--------|
A--5--------5------|--0--5--x--5----|---5-----4------|---0---2--------|
E------------------|--------x-------|----------------|-------0--------|
-
	We can still come true………

e-------------------0------0---0--------------------------------------|
B---------0------7--0------0---2--------------------------------------|
G------6---------6-----6---6---2----1---------------------------------|
D----6----6---7--------7---7---2----2---------------------------------|
A--0---------------------------0----2---------------------------------|
E-----------------------------------0---------------------------------|




I merely lost my head last night………

F  Bm   C#m   F#m   Bm




Even so………

e------------------|---------1--1--|-------------------|--------------|
B--------------5---|---------1--1--|---------------5---|--------------|
G--------5--6--6---|------2--------|---------5-----6---|----6---1-----|
D------7-----------|----3----------|------7--7--7--7---|----7---2-----|
A----7-------------|--3------------|----7----7--7--7---|----7---2-----|
E--5---------------|---------------|--5----------------|----5---0-----|

Verse 3: (do verse 2) bahala na kayo sa bawas at sundot

Adlib : (do the adlib) kaya nyo na yan!

Verse 4 : (half step higher do verse 2) bahala na uli kayo!


Tap to rate this tab
# A B C D E F G H I J K L M N O P Q R S T U V W X Y Z