Song name
# A B C D E F G H I J K L M N O P Q R S T U V W X Y Z

Dawes - Give Me Time chords

Highlighted       Show chord diagrams
Dawes - Give Me Time


Intro:

e|-3------3-----3---|
B|-3------0h1---3---|
G|-0------------0---|
D|-0------2-----0---|
A|-x------x-----x---|
E|-3------3-----3---|

Verse:

   G   C  G   C  Em G   Em  G   C  D      G
e|-3---3--3---3--3--3---3---3---3--2-h3p2-3---------------------------|
B|-3---3--3---3--3--3---3---3---1--3------3---1p0-1p0-----------------|
G|-0---0--0---0--0--0---0---0---0--2------0------------2p0------------|
D|-0---0--0---0--0--0---2---0---2--0------0---------------------------|
A|-x---3--0---3--2--x---2---x---3--x------x---------------------------|
E|-3---x--3---x-----3---0---3---x--x------3---------------------------|

into bridge

e|-----------------3--------------|
B|-1p0-------------0--------------|
G|-----2p0--4p0----4--------------|
D|-----------------0--------------|
A|-----------------0--------------|
E|-----------------3--------------|



G        C  G
Give me time....
G       C   Em   G
Give me time....
Em                               G
If there's one thing you could give,
C                                D
To help me show you all that's mine,
          G
Give me time.

Show me love....
Show me love....
If there's one thing that you know,
That I've not had any of,
Show me love.

Help me see....
Help me see....
If you know what it would take
And find the patience that you need,
Help me see.

bridge
(play around with the chords)

Give me time....
Give me time....
If there's one thing you could give,
To help me show you all that's mine,
Give me time. 

outro
Tap to rate this tab
 
# A B C D E F G H I J K L M N O P Q R S T U V W X Y Z