Song name
# A B C D E F G H I J K L M N O P Q R S T U V W X Y Z

Dawes - How Far Weve Come tab

-------------------------------------------------------------------------------
                          HOW FAR WE'VE COME - Dawes
-------------------------------------------------------------------------------

Tabbed by: Macheeoo
E-mail: macheeoo@yahoo.com

Tuning: Standard CAPO IV

(They play it in standard with a very specific picking pattern
 where-as I'm tabbing it solely for someone playing the chords 
 although I will include a less complex picking pattern intro
 for playing it capo IV) 



Intro:
    C                                     F C   F      C      G          C (hold C)
e|--0-----0------0------------0-----0-----1-0---1------0------3-----------------|
B|----1-----1-------3--0--------1-----1-----------1------1------0---0-----1-----|
G|------0-----0----------0--------0-----0-----------2------0------0---0-----0---|
D|-------------------------2--------------------------------------------0-------|
A|--3-----3------3--3--3------3-----3-----3-3---3------3------------------3---3-|
E|------------------------------------------------------------3-----3-----------|


Verse:

C                                 
Stars please shine the way for me
                         F  C
Show the one that I have followed
    F   C   G       C
To see how far I've come


C
Sun that slowly sets on me
                      F  C
Be the same to rise tomorrow
   F    C   G       C
To see how far I've come


Chorus:

C                     F     C
These are the days we swore upon
               
So barman keep the TV on
    F   C   G        C
To see how far we've come

C                F       C
Peak to peak and shore to shore

This is all love was ever for
     F    C   G         C
Is to see how far we've come


Verse: (repeat verse chords)

California's greenest parts
I reach out for my brother
To see how far he's come

For the girl that came to break my heart
I call on her new lover
To see how far she's come

Chorus: (repeat chorus chords)

Why your mother keeps a record of her child's height
Why we all are here tonight
Is to see how far we've come

The only point of clocks and maps
The only point of looking back
Is to see how far we've come


Bridge: (repeat verse chords)

Ooh Ooh Oh Oh Oh ..Ooh Ooh Ooh ..Ooh Ooh Ooh Oh Ohhh
Ooh Ooh Oh Oh Oh ..Ooh Ooh Ooh ..Ooh Ooh Ooh Oh Ohhh


Verse: (repeat verse chords)

Stars please shine the way for me
Show the one that I have followed
To see how far I've come

And sun that slowly sets on me
Be the same to rise tomorrow
To see how far I've come


END!!!
Tap to rate this tab
 
# A B C D E F G H I J K L M N O P Q R S T U V W X Y Z