Song name
# A B C D E F G H I J K L M N O P Q R S T U V W X Y Z

Dawes - A Little Bit Of Everything tab

-------------------------------------------------------------------------------
                             A LITTLE BIT OF EVERYTHING (SOLO) - Dawes
-------------------------------------------------------------------------------
Tabbed by: KcazFM3

Tuning: Standard, >>>CAPO 5th<<<

I'm pretty sure it's played with a slide on the album, but I've tabbed it the way I play
without a slide. The chords could possibly be off a little, but they sounded fine when
I played along to the album version. I put where the chords change above the tab, but 
the spacing is arbitrary, if you know what I mean. Listen to the album to figure out where
they change (it should be easy).

Also, that "6\3" could be a "5\3"; either sounds fine.

           C           F       C
e|--------------------------------------|
b|-----1---3/5~--5\3-1-3~--1-1----------|
g|-0-2---2---------------------2-2-0~---|
D|--------------------------------------|
A|--------------------------------------|
E|--------------------------------------|

     G                       C
e|--------------------------------------|
b|-1-3~--3p1-1-3/5-3\1-1-3p1-3/5/8~-----|
g|--------------------------------------|
D|--------------------------------------|
A|--------------------------------------|
E|--------------------------------------|

           Am           C     G                          C        F            C
e|---------------------------/8~~~--10-10-10-10--8~---10-12-\-8--------------------------|
b|-/8~-/10-10-10-10-\-8-8~----------------------------------------10-8---6\3-1-3/5~~~~---|
g|---------9--9--9--\-7-7~---------------------------------------------------------------|
D|---------------------------------------------------------------------------------------|
A|---------------------------------------------------------------------------------------|
E|---------------------------------------------------------------------------------------|



************************************

| /   slide up
| \   slide down
| h   hammer-on
| p   pull-off
| ~   vibrato
| +   harmonic
| x   Mute note
| b   Bend
| pb  Pre-bend
| br  Bend release
| pbr Pre-bend release
| brb Bend release bend

************************************
Tap to rate this tab
# A B C D E F G H I J K L M N O P Q R S T U V W X Y Z