Song name
# A B C D E F G H I J K L M N O P Q R S T U V W X Y Z

Daycare Swindlers - Hard Times tab

(Intro)

guitar 1

    G#
E -------------------------------------|
B -------------------------------------|
G -------------------------------------|
D -------------------------------------|
A --6-6-6-6-6-6-6-6-6-6-6-6-6-6-6-6----|
E --4-4-4-4-4-4-4-4-4-4-4-4-4-4-4-4----|
   pm.* * * * * * * * * * * * * * *


(Verse)

guitar 2

    F#    C#    F#    C#    G#       F#    C#    F#    G#     C#
E ------------------------------   -----------------------------|
B ------------------------------   -----------------------------|
G ------------------------------   -----------------------------|
D --------6-----------6---------   --------6------------------6-|
A --4-----4-----4-----4-----6---   --4-----4-----4------6-----4-|
E --2-----------2-----------4---   --2-----------2------4-------|
  (12x) (12x) (12x)  (6x) (6x)     (12x) (12x) (12x)  (9x)   (3x)


guitar 1

    F#    C#    F#    C#    G#       F#    C#    F#    G#
E --2-----------2-----------4---   --2-----------2-------------|
B --2-----6-----2-----6-----4---   --2-----6h7p6-2-----4-----6-|
G --3-----6-----3-----6-----5---   --3-----6-----3-----5-----6-|
D --4-----6-----4-----6-----6---   --4-----6-----4-----6-----6-|
A --4-----4-----4-----4-----6---   --4-----4-----4-----6-----4-|
E --2-----------2-----------4---   --2-----------2-----4-------|
  (12x) (12x) (12x) (6x)  (6x)     (12x) (12x) (12x) (9x)  (3x)


(Chorus)

both guitars

    A#    F#    C#    G#
E -----------------------------|
B -----------------------------|
G -----------------------------|
D --------------6--------------|
A --8-----4-----4-----6--------|
E --6-----2-----------4--------|
  (16x) (8x)   (4x) (4x)


(Solo)

guitar 1


E -------------------------------------------|
B -------------------------------------------|
G -------------------------------------------|
D -------------------------------------------|
A --1----4--6--9----11--11-11-11--9-9-9-11---|  (2x)
E -------------------------------------------|


E ---------------------------------------------------------------|
B ---------------------------------------------------------------|
G ---------------------------------------------------------------|
D --8--8-888--8--88--11-11-13---16--16-161616-15-1515-15h16p15---|
A ---------------------------------------------------------------|
E ---------------------------------------------------------------|


E ---------------------------------------------------------------|
B ---------------------------------------------------------------|
G ---------------------------------------------------------------|
D --8--8-888--8--88--11-11-13---16--16-161616-15-1515-13-1313\11-|
A ---------------------------------------------------------------|
E ---------------------------------------------------------------|


(ring out)

    A#
E ------------------|
B ------------------|
G ------------------|
D ------------------|
A --8---------------|
E --6---------------|


(outro)

    A#
E --------------------|
B --------------------|
G --------------------|
D --------------------|
A --8-----8-----8-----|
E --6-----6-----6-----|

www.daycare-swindlers.com
Tap to rate this tab
# A B C D E F G H I J K L M N O P Q R S T U V W X Y Z