Guitaretab - guitar tabs
Song name
# A B C D E F G H I J K L M N O P Q R S T U V W X Y Z

De Gregori Francesco - Generale tab

GENERALE                                                FRANCESCO DE GREGORI


LA RE LA RE LA MI

    LA
Generale dietro alla collina, ci sta la notte crucca ed assassina
              RE                                    LA                  FA#-
e in mezzo al prato c'Š una contadina, curva sul tramonto sembra una bambina
           SI-                                LA
di cinquant'anni e di cinque figli, venuti al mondo come conigli
           MI7                                LA
partiti al mondo come soldati e non ancora tornati.

    LA
Generale dietro la stazione, lo vedi il treno che portava al sole
              RE                                       LA                FA#-
non fa pi— fermate neanche per pisciare si va dritti a casa senza pi— pensare
                SI-                             LA
che la guerra Š bella anche se fa male che torneremo ancora a cantare
          MI7                             LA
e a farci fare l'amore l'amore dalle infermiere.

    LA
Generale la guerra Š finita il nemico Š scappato Š vinto Š battuto
             RE                                    LA                FA#-
dietro la collina non c'Š pi— nessuno solo aghi di pino e silenzio e funghi
            SI-                                LA
buoni da mangiare buoni da seccare da farci il sugo quando viene Natale
         MI7                                            LA
quando i bambini piangono e a dormire non ci vogliono andare.
[ Tab from: http://www.guitaretab.com/d/de-gregori-francesco/5264.html ]
    LA
Generale queste cinque stelle queste cinque lacrime sulla mia pelle
          RE                               LA                FA#-
che senso hanno dentro al rumore di questo treno che Š mezzo vuoto
        SI-                          LA               MI7
e mezzo pieno e va veloce verso il ritorno, tra due minuti Š quasi giorno
                      LA
Š quasi casa Š quasi amore.


Solo:


|---------------------|            |-3b-4b--5b--7b--9b~~--|
|--8--10--8--7--8~~~--|            |----------------------|
|---------------------|X 4         |----------------------|
|---------------------|            |----------------------|
|---------------------|            |----------------------|
|---------------------|            |----------------------|


|--7--8--7-----7--8h7----7---8h7------7---8h7--------7-----8h7---------7---8h7-----7-----8h7------7--8h7------------|
|----------7-----------5---------7--------------5----------------7--------------5-------------7----------5----------|
|-------------------------------------------------------------------------------------------------------------------|
|-------------------------------------------------------------------------------------------------------------------|
|-------------------------------------------------------------------------------------------------------------------|
|-------------------------------------------------------------------------------------------------------------------|



da:simo90  non so se è giusta.. se ci sono delle correzioni ben venga..

Divertitevi
Related for Generale tab
Generale chords by De Gregori Francesco