Song name
# A B C D E F G H I J K L M N O P Q R S T U V W X Y Z

De Heideroosjes - Rechtsstaat tab

(Intro&Refrein)
|------------------------------------------|
|------------------------(4X:-5-5-5-5 enz.)|
|------------------------------------------|
|-2-2-2-2-(enz.)---------------------------|
|------------------------------------------|
|------------------------------------------|
|                                          |
|------------------------------------------|
|------------------------------------------|
|------------------------------------------|
|-2-2-2-2--5-5-5-5--7-7-7-7--9-9--1010-----|
|-2-2-2-2--5-5-5-5--7-7-7-7--9-9--1010-----|
|-0-0-0-0--3-3-3-3--5-5-5-5--7-7--8-8------| 4X


(Tussen stuk)
|-----3-2-----3-2------3-2-----------------|
|------------------------------------------|
|------------------------------------------|
|-2-2-----1010-----9-9------4-4-4-4-4-4----|
|-2-2-----1010-----9-9------4-4-4-4-4-4----|
|-0-0-----8-8------7-7------2-2-2-2-2-2----| 2x

(couplet)
|------------------------------------------|
|-----------------------------------3-3----|
|------------------------------------3-2(?)|
|-2-2--5-5--7-7--x-x--2-2--5-5--7-7--------|
|-2-2--5-5--7-7--x-x--2-2--5-5--7-7--------|
|-0-0--3-3--5-5--x-x--0-0--3-3--5-5--------| 1x

|------------------------------------------|
|------------------------------------------|
|------------------------------------------|
|-2-2--5-5--7-7--x-x--2-2--5-5--7--10------|
|-2-2--5-5--7-7--x-x--2-2--5-5--7--10------|
|-0-0--3-3--5-5--x-x--0-0--3-3--5--8-------| 1x

(Refrein)
(Tussenstuk)
(Couplet)
(Refrein)


(Brige)
|-----------16-16-12-12------------12-12-16-16-|
|----------------------------------------------|
|----------------------------------------------|
|-2-2--5--4--------------2-2--5--4-------------|
|-2-2--5--4--------------2-2--5--4-------------|
|-0-0--3--2--------------0-0--3--2-------------|2X
                         2e X tot ^


(Refrein) 2X(!)

Eindig met de E
Tap to rate this tab
# A B C D E F G H I J K L M N O P Q R S T U V W X Y Z