Song name
# A B C D E F G H I J K L M N O P Q R S T U V W X Y Z

De Heideroosjes - Tering Tyfus Takketrut tab

its the complete song.
i think its right so enjoy!

---------------------------------------------|
---------------------------------------------|
---------------------------------------------| x3
----------------888--------------------------|
-8-55-8-55-8-55-666--8-55-8-55-8-55-333------|
-6-33-6-33-6-33------6-33-6-33-6-33-111------|

-----------------------------------------------------------------------|
-----------------------------------------------------------------------|
-----------------------------------------------------------------------|
----------------888---------------------(3) Only at the 4th,8th and 12-|th time
-8-55-8-55-8-55-666--8-55-8-55-8-55-333--------------------------------|(1)
-6-33-6-33-6-33------6-33-6-33-6-33-111--------------------------------|

repeat 3 times


-------------------------------------------|
-------------------------------------------|
-------------------------------------------|
----------------888------------------------|
-8-55-8-55-8-55-666--8-55-8-55-8-55-333----|
-6-33-6-33-6-33------6-33-6-33-6-33-111----|

-------------------------------------------


-------------------------------------------|
-------------------------------------------|
----------------888---------------------3--|
-8-55-8-55-8-55-666--8-55-8-55-8-55-333-1--|
-6-33-6-33-6-33------6-33-6-33-6-33-111----|
Tap to rate this tab
# A B C D E F G H I J K L M N O P Q R S T U V W X Y Z