Song name
# A B C D E F G H I J K L M N O P Q R S T U V W X Y Z

De Mens - En In Gent tab

In de strofes gewoon met een clean-gitaar, en in de
refreinen met een distortion-gitaar, de akkoorden

G - D# - A# afgaan (+ de akkoorden die expliciet aangeduid zijn in de tekst)


Intro
---------------------------|
-----3-------6----5--------|
---------------------------|
--5----3---8----7----------|
---------------------------|
---------------------------|

G - D# - A# X3

Intro

STROFE:

Kijk ik de zonde in de ogen
Loop ik nu in een lange rij
hoe vaak heeft zij zichzelf al bedrogen
C   D#
in de wegwerpmaatschappij

Zou ze mogen van haar moeder
zeg me heb je tijd voor mij

INTRO

REFREIN
Vrouwen gaan uit om te vergeten
mannen om bij de vrouwen te zijn
vrouwen willen praten en eten
mannen verkiezen de korte pijn

STROFE
Ze nam me mee naar een lege speelplaats
gaf me een fiets hoe kwam ze erbij
zei dat ik haar naar huis mocht rijden
C    D#
misschien had ze wel tijd voor mij

INTRO

REFREIN
Vrouwen gaan uit om te vergeten
mannen om bij de vrouwen te zijn
vrouwen willen praten en eten
mannen verkiezen de korte pijn

en in gent en in gent...

FILL:

 C    B    G    F#
-----------------------|
-----------------------|
-----------12---11-----|
-10---9----12---11-----|
-10---9----10----9-----|
--8---7-----x----x-----|

STROFE
Ze nam me mee naar een lege speelplaats
gaf me een fiets
hoe kwam ze erbij     (geen gitaar tot aan C)
zei dat ik haar naar huis mocht rijden
C    D#
misschien had ze wel tijd voor mij

zou ze mogen van haar moeder
zeg me ben je rijk voor mij

INTRO

REFREIN
Vrouwen gaan uit om te vergeten
mannen om bij de vrouwen te zijn
vrouwen willen praten en eten
mannen verkiezen de korte pijn
en in gent en in gent...

FILL

G - G - G

Soloken
--------------------------|---------------------------|
--------------------------|---------------------------|
--5b5-5b5-5b5-0-----------|--5b5-5b5-5b5-0---------12-|
----------------------5---|---------------------------|
--------------------------|---------------------------|
--------------------------|---------------------------|

STROFE
Kijk ik de zonde in de ogen
Zeg me heb je tijd voor mij

REFREIN
en in gent en in gent...

FILL2
 C    B    G
-----------------|
-----------------|
-----------12----|
-10---9----12----|
-10---9----10----|
--8---7-----x----|

-===========================================================================-
Speciaal bedankje voor:
 FYSK@mail.be (respect)

Op onderstaande website kun je nog meer De Mens-gekte leren spelen:

http://www.geocities.com/gitaarmens
Tap to rate this tab
# A B C D E F G H I J K L M N O P Q R S T U V W X Y Z